MUZBANK



A Most Complete Bank Of Music Information

МУЗЫКАЛЬНО-ИНФОРМАЦИОННЫЙ БАНК

Поиск по сайту







    GGodsmack • Get Up Get Out (аккорды и текст - chords & lyrics)


    201

    Print

    Видео «Get Up Get Out (Godsmack)»

    Видео клипы к песне подбираются автоматически сайтом youtube. Возможны некоторые несоответствия клипов песне.

    ↑ Спрятать рекламу ↑



    Download



     
    
    
    Band: Godsmack 
    Song: Get Up, Get Out 
    Tabed By: Jeff H (poo_poo_punk@hotmail.com)
    
    Dropped D Tuning
    
    Intro (play a few times)
    G :| ----------------|----------------|
    D :|*----------------|----------------|
    A :|*----------------|----------------|
    D :| 0---------------|0-------3---2---|
    
    G :|----------------|---------------- |
    D :|----------------|----------------*|
    A :|----------------|----------------*|
    D :|0---------------|3-----2-----1--- |
    
    End: Play just 2nd line a few times
    the end with low D:|0-----|
    
    Verse
            Play Many X           Last Time
    G :| ---------------- ||--------------------||
    D :|*----------------*||--------------------||
    A :|*----355-----3555*||----355-------------||
    D :| 0-0----0-0-0---- ||0-0-----3-2-5-3-2-3-||
    
    Pre-Chorus (a couple times)
    G :| ----------------*|
    D :|*----------------*|
    A :|*----------------*|
    D :| 5--6--5--6--5-6- |
    
    Chorus
    G :| ------------------------------|--------------------- |
    D :|*------------------------------|---------------------*|
    A :|*------------------------------|---------------------*|
    D :| 0-0-10-12-12-0-0-0-10-12-12-12|0-0-10-12-12-3-331-11 |
    
    G :|-------| 
    D :|-------| Before Solo?
    A :|5------| 
    D :|-------|
    
    Guitar Solo:  
    
    Play many x under solo:
    G :| ------4x-------- || --------4x------ ||
    D :|*----------------*||*----355-----3555*||
    A :|*----355-----3555*||*----------------*||
    D :| 0-0----0-0-0---- || 5-5----5-5-5---- ||
    
    After the solo goto the other bits then:
    
    G :1-1-1-1-4-4-4-4-|7-7-7-7-10-10-10-10-|
    D :----------------|--------------------|
    A :----------------|--------------------|
    D :----------------|--------------------|
    
    G :13-13-13-13-13-13-13-13-|13-13-13-13-13-13-13-13-|
    D :------------------------|------------------------|
    A :------------------------|------------------------|
    D :------------------------|------------------------|
     

    Тональность:

    Нет текста!



    Назад
    Рекомендуем посмотреть другие песни исполнителя «Godsmack»:

    • Комментарии Facebook ()
    • Комментарии ВКонтакте



    Добавить в Избранное Браузера
    Сохранить здесь Очистить


    x

    0


    +
    -

    +
    -

    -

    Авторизация





    Зарегистрироваться

    M

    Дата и время

    • 10:54:23
       

    Социальные ссылки


    Наши приложения

    • Muzbank App Play Market
    • Muzbank Amazon App