MUZBANK



A Most Complete Bank Of Music Information

МУЗЫКАЛЬНО-ИНФОРМАЦИОННЫЙ БАНК

Поиск по сайту







    GGodsmack • I Fucking Hate You (аккорды и текст - chords & lyrics)


    170

    Print

    Видео «I Fucking Hate You (Godsmack)»

    Видео клипы к песне подбираются автоматически сайтом youtube. Возможны некоторые несоответствия клипов песне.

    ↑ Спрятать рекламу ↑



    Download



     
    
    
    this is a sweet song
    the tunning is cgcfad
    
    intro
    ---------------------------------------------------------------
    ---------------------------------------------------------------
    ---------------------------------------------------------------
    -0-0-------------------------------------------------x4--------
    -0-0-----------------------------------------------------------
    -0-0--17/18-18-18-18-17/18-18-18-18-17/18-18-18-18-18----------
    
    ---------------------------------------------------------------
    ---------------------------------------------------------------
    ---------------------------------------------------------------
    -0-0--3-3-3---5-5-5---6-6-6---5-5-5---3-3-3--------------------
    -0-0--3-3-3---5-5-5---6-6-6---5-5-5---3-3-3--------------------
    -0-0--3-3-3---5-5-5---6-6-6---5-5-5---3-3-3--------------------
    
    
    ---------------------------------------------------------------
    ---------------------------------------------------------------
    ----------------------------------------------------x4---------
    -0-0-----------------------------------------------------------
    -0-0-----------------------------------------------------------
    -0-0--17/18-18-18-18--17/18-18-18-18--17/18-18-18-18-----------
    
    
    ---------------------------------------------------------------
    -3-----3-------------------------------------------------------
    -2-----2-------------------------------------------------------
    -0--6--0---5-6-5-6-5-6-5-6-5--x2-------------------------------
    -0--6--0---5-6-5-6-5-6-5-6-5-----------------------------------
    -0--6--0---5-6-5-6-5-6-5-6-5-----------------------------------
    
    ------------------------------------------------------------------
    ------------------------------------------------------------------
    ------------------------------------------------------------------
    -0-0--3-3-3--5-5-5--6-6-6--5-5-5--0-0--3-3-3--5-5-5--6-6-6--5-5-5-
    -0-0--3-3-3--5-5-5--6-6-6--5-5-5--0-0--3-3-3--5-5-5--6-6-6--5-5-5-
    -0-0--3-3-3--5-5-5--6-6-6--5-5-5--0-0--3-3-3--5-5-5--6-6-6--5-5-5-          
    
    
    thats all i have it is pretty acurate u have to listen to the song
    to get the really cool part of it
     

    Тональность:

    Нет текста!



    Назад
    Рекомендуем посмотреть другие песни исполнителя «Godsmack»:

    • Комментарии Facebook ()
    • Комментарии ВКонтакте



    Добавить в Избранное Браузера
    Сохранить здесь Очистить


    x

    0


    +
    -

    +
    -

    -

    Авторизация





    Зарегистрироваться

    M

    Дата и время

    • 01:12:33
       

    Социальные ссылки


    Наши приложения

    • Muzbank App Play Market
    • Muzbank Amazon App