MUZBANK



A Most Complete Bank Of Music Information

МУЗЫКАЛЬНО-ИНФОРМАЦИОННЫЙ БАНК

Поиск по сайту







    GGodsmack • I Stand Alone (аккорды и текст - chords & lyrics)


    180

    Print

    Видео «I Stand Alone (Godsmack)»

    Видео клипы к песне подбираются автоматически сайтом youtube. Возможны некоторые несоответствия клипов песне.

    ↑ Спрятать рекламу ↑



    Download



     
    
    
    Title: I Stand Alone
    Artist: Godsmack
    Album: Faceless / Scorpion King soundtrack
    Instrument: 6 String Guitar
    Tabbed by: Gibson666 (ndclgoose33@aol.com)
    
    Tuning: 1 Step Down ( C G C F A D)
    Heavy Distortion (entire song) and wha (bridge only)
    
    Intro
    D|-------------------------------------||8X
    A|-------------------------------------||
    F|-------------------------------------||
    C|-------------------------------------||
    G|-------------------------------------||
    C|0-0-0-19-19--0-0-0-20-20--0-0-20-20--||
    
    Verse
    D|---------------------------------||4X
    A|---------------------------------||
    F|---------------------------------||
    C|-0---0-00--0--00---6---0--00--0-3||
    G|-0---0-00--0--00---6---0--00--0-3||
    C|-0---0-00--0--00---6---0--00--0-3||
       *   * **  *  **       *  **  * *
    
    Verse cont.
    D|-----------------||1X
    A|-----------------||
    F|-----------------||
    C|-0--0--0-000--5--||
    G|-0--0--0-000--5--||
    C|-0--0--0-000--5--||
       *  *  * ***  *
    
    Pre Chorus
    D|----------------------------||1X
    A|----------------------------||
    F|----------------------------||
    C|3------5---------6----------||
    G|3------5---------6----------||
    C|3------5---------6----------||
    
    Chorus
    D|-------------------------------------||2X
    A|-------------------------------------||
    F|-------------------------------------||
    C|-------------------------------------||
    G|-------------------------------------||
    C|0-0-0-19-19--0-0-0-20-20--0-0-20-20--||
    
     Verse
    D|---------------------------------||4X
    A|---------------------------------||
    F|---------------------------------||
    C|-0---0-00--0--00---6---0--00--0-3||
    G|-0---0-00--0--00---6---0--00--0-3||
    C|-0---0-00--0--00---6---0--00--0-3||
       *   * **  *  **       *  **  * *
    
    Verse cont.
    D|-----------------||1X
    A|-----------------||
    F|-----------------||
    C|-0--0--0-000--5--||
    G|-0--0--0-000--5--||
    C|-0--0--0-000--5--||
       *  *  * ***  *
    Pre Chorus
    D|----------------------------||1X
    A|----------------------------||
    F|----------------------------||
    C|3------5---------6----------||
    G|3------5---------6----------||
    C|3------5---------6----------||
    
    Chorus
    D|-------------------------------------||4X
    A|-------------------------------------||
    F|-------------------------------------||
    C|-------------------------------------||
    G|-------------------------------------||
    C|0-0-0-19-19--0-0-0-20-20--0-0-20-20--||
    
    Pre Chorus
    D|----------------------------||1X
    A|----------------------------||
    F|----------------------------||
    C|3------5---------6----------||
    G|3------5---------6----------||
    C|3------5---------6----------||
    
    Chorus
    D|-------------------------------------||4X
    A|-------------------------------------||
    F|-------------------------------------||
    C|-------------------------------------||
    G|-------------------------------------||
    C|0-0-0-19-19--0-0-0-20-20--0-0-20-20--||
    
    Bridge         /-----Play--4X------------ /----Play-4X--   
    D|------------|---------------------------|---------------||
    A|------------|---------------------------|---------------||
    F|------------|---------------------------|---------------||
    C|5-----------|------3---------------3--1-|----------3----||
    G|5-----------|---5---------------5-------|-------7-----5-||
    C|5-----------|3--------1------1----------|----5----------||
    
    D|----------------||3X
    A|----------------||
    F|----------------||
    C|5---------------||
    G|5---------------||
    C|5---------------||
    
    D|----------------------------||1X
    A|----------------------------||
    F|----------------------------||
    C|3------5---------6----------||
    G|3------5---------6----------||
    C|3------5---------6----------||
    
    D|-------------------------------------||2X
    A|-------------------------------------||
    F|-------------------------------------||
    C|-------------------------------------||
    G|-------------------------------------||
    C|0-0-0-19-19--0-0-0-20-20--0-0-20-20--||
    
    D|----------------------------||1X
    A|----------------------------||
    F|----------------------------||
    C|3------5---------6----------||
    G|3------5---------6----------||
    C|3------5---------6----------||
    
    D|-------------------------------------||2X
    A|-------------------------------------||
    F|-------------------------------------||
    C|-------------------------------------||
    G|-------------------------------------||
    C|0-0-0-19-19--0-0-0-20-20--0-0-20-20--||
    
    D|-------------------------------------||2X
    A|-------------------------------------||
    F|-------------------------------------||
    C|-------------------------------------||
    G|-------------------------------------||
    C|0-0-0-19-19--0-0-0-20-20--0-0-20-20--||
    
    D|-------------------------------------||2X
    A|-------------------------------------||
    F|-------------------------------------||
    C|-------------------------------------||
    G|-------------------------------------||
    C|0-0-0-19-19--0-0-0-20-20--0-0-20-20--||
    
    D|-------------------------------------||2X
    A|-------------------------------------||
    F|-------------------------------------||
    C|-------------------------------------||
    G|-------------------------------------||
    C|0-0-0-19-19--0-0-0-20-20--0-0-20-20--||
    
    D|-------------||
    A|-------------||
    F|-------------||
    C|3------------||
    G|3------------||
    C|3------------||
     

    Тональность:

    Нет текста!



    Назад
    Рекомендуем посмотреть другие песни исполнителя «Godsmack»:

    • Комментарии Facebook ()
    • Комментарии ВКонтакте



    Добавить в Избранное Браузера
    Сохранить здесь Очистить


    x

    0


    +
    -

    +
    -

    -

    Авторизация





    Зарегистрироваться

    M

    Дата и время

    • 11:08:06
       

    Социальные ссылки


    Наши приложения

    • Muzbank App Play Market
    • Muzbank Amazon App