MUZBANK



A Most Complete Bank Of Music Information

МУЗЫКАЛЬНО-ИНФОРМАЦИОННЫЙ БАНК

Поиск по сайту







    GGodsmack • Keep Away (аккорды и текст - chords & lyrics)


    207

    Print

    Видео «Keep Away (Godsmack)»

    Видео клипы к песне подбираются автоматически сайтом youtube. Возможны некоторые несоответствия клипов песне.

    ↑ Спрятать рекламу ↑



    Download



     
    
    
    Band: Godsmack 
    Song: Keep Away 
    Tabed By: Jeff H (poo_poo_punk@hotmail.com)
    
    Intro:
    E :| ---------------- |
    B :| ---------------- |
    G :|*7-77-77-77-77777*|
    D :|*x-xx-xx-xx-xxxxx*|
    A :| 5-55-55-55-55555 |
    D :| ---------------- |
    
    Pre-Verse Riff
    E :| ----------------|---------------- |
    B :| ----------------|---------------- |
    G :|*----------------|----------------*|
    D :|*0---0-----3-3---|--5-5-5-6---53--*|
    A :| 0---0-00033-3-xx|xx5-5-556-6653-- |
    D :| 0---0-00033-3-xx|xx5-5-556-6653-- |
    
    Main Verse riff
    E :| ----------------|---------------- |
    B :| ----------------|---------------- |
    G :|*----------------|----------------*|
    D :|*0---0-----3-3---|--5-5-5-6---53--*|
    A :| 0---0---033-3---|xx5-5-5-6-6653-- |
    D :| 0---0---033-3---|xx5-5-5-6-6653-- | 
    
    First Chorus
    E :|----------------|----------------|----------------|----------------|
    B :|3---3-33333-3-33|----------------|3---3-33333-3-33|----------------|
    G :|2---2-22220-0-00|2-2-2-222x3-3-33|2---2-22220-0-00|----------------|
    D :|0---0-0000x-x-xx|2-2-2-222x3-3-33|0---0-0000x-x-xx|7-7-7-778|
    A :|0---0-00003-3-33|0-0-0-000x1-1-11|0---0-00003-3-33|7-7-7-778|
    D :|0---0-0000------|----------------|0---0-0000------|7-7-7-778| 
    
    2nd & 3rd Choruses
    
    Play 3x
    E :| ----------------|---------------- |
    B :| 3---3-33333-3-33|---------------- |
    G :|*2---2-22220-0-00|2-2-2-222x3-3-33*|
    D :|*0---0-0000x-x-xx|2-2-2-222x3-3-33*|
    A :| 0---0-00003-3-33|0-0-0-000x1-1-11 |
    D :| 0---0-0000------|---------------- |
    Then
    E :|----------------|----------------|----------------|
    B :|3---3-33333-3-33|----------------|----rings-out---|
    G :|2---2-22220-0-00|2-2-2-222x3-3-35|----------------|
    D :|0---0-0000x-x-xx|2-2-2-222x3-3-35|0---------------|
    A :|0---0-00003-3-33|0-0-0-000x1-1-13|0---------------|
    D :|0---0-0000------|----------------|0---------------| 
    
    Bridge
    E :|----------------| --Play-16x------ |
    B :|--hit-chord-----| ---------------- |
    G :|------again-----|*77777-77777-----*|
    D :|0---------------|*77777-66666-----*|
    A :|0---------------| 55555-55555----- |
    D :|0---------------| ---------------- |
    
    
    Solo
    
    Key: ^ Bend up
    r Release bend
    ~ Wammy bar or wammy pedal whatever
    p Pull-off
    h Hammer-on
    
    E :----------------------------------------------------------------
    B :----------------------------------------------------------------
    G :13^14~~~--13^14~~~--13^14~~~--12^14r12p10--10-12-10^12r10p7--7--
    D :----------x------------------------------12----------------10---
    A :----------x-----------------------------------------------------
    E :----------------------------------------------------------------
    ^string rake 
    
    E :-------------------------------------------------
    B :---------------6^8r6-3---------------------------
    G :-----------------------5p2h5p2h5/7^8r7p5-7~~~~~--
    D :-------------------------------------------------
    A :8^10r8p5p0h3h5-----------------------------------
    E :-------------------------------------------------
    
    E :-----10--101210----------------13--13-1313131313-
    B :13^15--13------13-13^15r14^15~~~~--15-1515151515-
    G :-------------------------------------------------
    D :-----------------------------------^still-bent---
    A :-------------------------------------------------
    E :-------------------------------------------------
    
    ENJOI    great song
     

    Тональность:

    Нет текста!



    Назад
    Рекомендуем посмотреть другие песни исполнителя «Godsmack»:

    • Комментарии Facebook ()
    • Комментарии ВКонтакте



    Добавить в Избранное Браузера
    Сохранить здесь Очистить


    x

    0


    +
    -

    +
    -

    -

    Авторизация





    Зарегистрироваться

    M

    Дата и время

    • 00:55:41
       

    Социальные ссылки


    Наши приложения

    • Muzbank App Play Market
    • Muzbank Amazon App