MUZBANK



A Most Complete Bank Of Music Information

МУЗЫКАЛЬНО-ИНФОРМАЦИОННЫЙ БАНК

Поиск по сайту







    GGodsmack • Make Me Believe (аккорды и текст - chords & lyrics)


    300

    Print

    Видео «Make Me Believe (Godsmack)»

    Видео клипы к песне подбираются автоматически сайтом youtube. Возможны некоторые несоответствия клипов песне.

    ↑ Спрятать рекламу ↑



    Download



     
    
    
    Band: Godsmack
    Song: Make Me Believe
    Tabbed By: Nick Treglown
    Tuning: CGCFAD
    
    PM.=Palm Mute
    ~  =Let Ring 
    INTRO
    |------------------------------------------------|
    |------------------------------------------------|
    |------------------------------------------------|
    |-0-0----15-15-15-15---13-13-13-13---12-12-12-12-|
    |-0-0----15-15-15-15---13-13-13-13---12-12-12-12-|	x3
    |-0-0----15-15-15-15---13-13-13-13---12-12-12-12-|
    
    Fill
    |------------------------|                                                    
    |------------------------|
    |------------------------|
    |----5-5-5-5--0-0-3-0-0-1|
    |----5-5-5-5--0-0-3-0-0-1|
    |----5-5-5-5--0-0-3-0-0-1|
    PM            ...   ...
    
    VERSE
    |-----------------------------------------|
    |-----------------------------------------|
    |-----------------------------------------|
    |-----------------------------------------|
    |-----------------------------------------|
    |0-0-0-0-0--8-8-8-8-8-7-7-7-7-7-5-5-5-5-5-|
    PM.......................................
    
    FILL                                  
    |---------------------------------|
    |---------------------------------|
    |-7-7-7---------------------------|
    |-7-7-7---------------------------|x4
    |-5-5-5---------------------------|
    |---------8-8-8-7-7-7-7-5-5-5-----|
    first time palm mute 8,7 and 5 second time play open as power chords and then repeat
    
    CHORUS:
    |------------------------------------------------|
    |------------------------------------------------|
    |------------------------------------------------|
    |-0-0----15-15-15-15---13-13-13-13---12-12-12-12-|
    |-0-0----15-15-15-15---13-13-13-13---12-12-12-12-|
    |-0-0----15-15-15-15---13-13-13-13---12-12-12-12-|
                                                                                  
    
    BRIDGE:
    |--------------------------------|
    |--3--------------------8--------|
    |--2--------------------10-------|
    |--0--------------------8--------|
    |--0--------------------8--------|
    |--0--------------------8--------|
                       
    
    ENDING:
    |---------------------------------------------------|
    |------------------------------------------------3~-|
    |------------------------------------------------2~-|
    |-0-0----15-15-15-15---13-13-13-13---12-12-12-12-0~-|
    |-0-0----15-15-15-15---13-13-13-13---12-12-12-12-0~-|	x3
    |-0-0----15-15-15-15---13-13-13-13---12-12-12-12-0~-|
     

    Тональность:

    Нет текста!



    Назад
    Рекомендуем посмотреть другие песни исполнителя «Godsmack»:

    • Комментарии Facebook ()
    • Комментарии ВКонтакте



    Добавить в Избранное Браузера
    Сохранить здесь Очистить


    x

    0


    +
    -

    +
    -

    -

    Авторизация





    Зарегистрироваться

    M

    Дата и время

    • 19:14:50
       

    Социальные ссылки


    Наши приложения

    • Muzbank App Play Market
    • Muzbank Amazon App