MUZBANK



A Most Complete Bank Of Music Information

МУЗЫКАЛЬНО-ИНФОРМАЦИОННЫЙ БАНК

Поиск по сайту







    GGodsmack • Sweet Leaf (аккорды и текст - chords & lyrics)


    264

    Print

    Видео «Sweet Leaf (Godsmack)»

    Видео клипы к песне подбираются автоматически сайтом youtube. Возможны некоторые несоответствия клипов песне.

    ↑ Спрятать рекламу ↑



    Download


     
    
    
    song:sweet leaf
    artist:godsmack
    album:nativity in black(tribute to black sabbath)
    tab by:leander m.
    
    tune dorp C (D A F C G C)
    
    Intro/stanza
    D|--------------------|
    A|--------------------|
    F|--------------------|
    C|--2-2-x-7-5--5-5-7--|(4x)
    G|--2-2-x-7-5--5-5-7--|
    C|--2-2-x-7-5--5-5-7--|
    
    refrain:
    D|------------------------------------||----------------|
    A|------------------------------------||----------------|
    F|------------------------------------||----------------|
    C|--2~~--0-5--9/--2-------------------||----------------|
    G|--2~~--0-5--9/--2--2-2-2-2-2-2-2-2--||--3-2-2--3-2-2--|
    c|--2~~--0-5--9/--2--2-2-2-2-2-2-2-2--||--3-2-2--3-2-2--|
    		     . . . . . . . .	
    (stanza)
    (refrain)
    
    adlib:
    guitar I
    D|-----------------------|    -----------|
    A|-----------------------|    -----------|
    F|-----------------------|    -----------|
    C|--5~~-7~~--5-7-7pause--|(4x)--5-7-7~~--|
    G|--5~~-7~~--5-7-7pause--|    --5-7-7~~--|
    C|--5~~-7~~--5-7-7pause--|    --5-7-7~~--|
    
    guitar II
    D|---------------     ---------------	  ---------------|
    A|---------------     ---------------	  ---------------|
    F|---------------     ---------------	  --5-6-5h6p5----|(16x)
    C|---------------(8x) ---------------(8x) ------------6--|
    G|--2-3-2h3p2----     --4-5-4h5p4----	  ---------------|
    C|------------5--     ------------7--	  ---------------|
    
    D|------------------------------|
    A|------------------------------|
    F|------------------------------|
    C|--5~~-------------------------|
    G|--5~~-5-4-4--5-4-4--5~~-x--0--|
    C|--5~~-5-4-4--5-4-4--5~~-x--0--|
    
    intro riff
    stanza
    refrain
    intro riff
    
    finale:(fading)
    D|-------------------------------------------------------------------------|
    A|-------------------------------------------------------------------------|
    F|-------------------------------------------------------------------------|
    C|-------------------------------------------------------------------------|
    G|--777777....55555....../7777777/....../10-10-10-10-10.....-777777...--|
    C|-------------------------------------------------------------------------|
    
    				End
    
    tab by:leander_85@yahoo.com
    	09193216020(4-phil. only)
    legend:
    h - hammer on 
          p - pull off 
          b - bend string up
          r - release bend
          / - slide up
           - slide down
          v - vibrato
          t - right hand tap
          x - let ring
          . - palm mute
     

    Тональность:

    Нет текста!



    Назад
    Рекомендуем посмотреть другие песни исполнителя «Godsmack»:

    • Комментарии Facebook ()
    • Комментарии ВКонтакте



    Добавить в Избранное Браузера
    Сохранить здесь Очистить


    x

    0


    +
    -

    +
    -

    -

    Авторизация





    Зарегистрироваться

    M

    Дата и время

    • 11:11:40
       

    Социальные ссылки


    Наши приложения

    • Muzbank App Play Market
    • Muzbank Amazon App