MUZBANK



A Most Complete Bank Of Music Information

МУЗЫКАЛЬНО-ИНФОРМАЦИОННЫЙ БАНК

Поиск по сайту







    GGoldfinger • Spokesman (аккорды и текст - chords & lyrics)


    178

    Print

    Видео «Spokesman (Goldfinger)»

    Видео клипы к песне подбираются автоматически сайтом youtube. Возможны некоторые несоответствия клипов песне.

    ↑ Спрятать рекламу ↑



    Download



     
    
    
    Intro
    G-----------
    D-----------
    A-2-2-2-2-2-
    E--0-0-0-0--
    
    Verse
    G--------------------------------------------------------
    D--------------------------------------------------------
    A-2222222222222222----------------4444444444444444-----2-
    E-----------------2222222222222222----------------00-22--
    
    Pre Chorus
    G-------
    D-------
    A-0-0-0-
    E-------
    
    Chorus
    G--------------------------------------------------------------------
    D--------------------------------------------------------------------
    A------------------5555-4444-22222222-----------------55555555-------
    E-33333333-55555555------------------33333333-55555555--------555555-
    
    Bridge
    G------------------------------------------------
    D------------------------------------------------
    A-2-2-2-2-2-2-2-2-2-2-2---2-2-2-2-2-222-2222222--
    E--0-0-0-0-0-0-0-0-0-0-000-0-0-0-0-0---0-------0-
    
    Outro
    G-------------------------
    D-------------------------
    A-2-2-2-2-2---2-2-2-2-2-2-
    E--0-0-0-0-000-0-0-0-0-0--
     

    Тональность:

    Нет текста!



    Назад
    Рекомендуем посмотреть другие песни исполнителя «Goldfinger»:

    • Комментарии Facebook ()
    • Комментарии ВКонтакте



    Добавить в Избранное Браузера
    Сохранить здесь Очистить


    x

    0


    +
    -

    +
    -

    -

    Авторизация





    Зарегистрироваться

    M

    Дата и время

    • 23:29:16
       

    Социальные ссылки


    Наши приложения

    • Muzbank App Play Market
    • Muzbank Amazon App