MUZBANK



A Most Complete Bank Of Music Information

МУЗЫКАЛЬНО-ИНФОРМАЦИОННЫЙ БАНК

Поиск по сайту







    GGoldfinger • Superman (аккорды и текст - chords & lyrics)


    302

    Print

    Видео «Superman (Goldfinger)»

    Видео клипы к песне подбираются автоматически сайтом youtube. Возможны некоторые несоответствия клипов песне.

    ↑ Спрятать рекламу ↑



    Download


     
    
    
    Song: Superman
    Band: Goldfinger
    Album: Hang-ups (1997)
    Written by John from Goldfinger
    Transcribed by X-Drago (Neozamux@hotmail.com)
    
    
    
    Solo:
    E-------------5-------------------------------------7-5----------
    B--------5-7---5--------3-5-3---3-2--------3-----------7---7--5--
    G----5/7--------7---2/4---------4-2------4---4---4/7-------7--6--
    D------------------------------------4/5-------------------------
    A--5-------------------------------------------------------------
    E----------------------------------------------------------------
    
    
    E------------------5---------------2---------------------7-5--------
    B--------5----5-------------3-3-----2-----------3-----------7---7--5
    G----5/7---7----7-----2/4-4-----4----2------4-4---4---4/7-------7--6
    D---------------------------------------4/5-------------------------
    A--5----------------------------------------------------------------
    E-------------------------------------------------------------------
    
    E----------
    B----7--7--
    G----7--7--
    D----7--7--
    A----------
    E----------
    
    Manden sus comentarios a Neozamux@hotmail.com
     

    Тональность:

    Нет текста!



    Назад
    Рекомендуем посмотреть другие песни исполнителя «Goldfinger»:

    • Комментарии Facebook ()
    • Комментарии ВКонтакте



    Добавить в Избранное Браузера
    Сохранить здесь Очистить


    x

    0


    +
    -

    +
    -

    -

    Авторизация





    Зарегистрироваться

    M

    Дата и время

    • 04:19:29
       

    Социальные ссылки


    Наши приложения

    • Muzbank App Play Market
    • Muzbank Amazon App