MUZBANK



A Most Complete Bank Of Music Information

МУЗЫКАЛЬНО-ИНФОРМАЦИОННЫЙ БАНК

Поиск по сайту







    GGood Riddance • Token Idiot (аккорды и текст - chords & lyrics)


    310

    Print

    Видео «Token Idiot (Good Riddance)»

    Видео клипы к песне подбираются автоматически сайтом youtube. Возможны некоторые несоответствия клипов песне.

    ↑ Спрятать рекламу ↑



    Download


     
    
    
    -----------------------------------------------------------------------
                   TOKEN IDIOT         GOOD RIDDANCE
    -----------------------------------------------------------------------
    
    INTRO
    g]------------------------]
    d]------------------------]
    a]-----5-5-5-----8-8-8-6>-]
    e]-6-6-------3-3----------]
    
    VERSE
    g]---------------]
    d]---------------]
    a]----5-------6>-]
    e]-6>---3-3-3----]
    
    CHORUS
    g]-----------------------------]
    d]-----------------------------]
    a]----8>-10>-6>----8>-10>-10-8-]
    e]-6>-----------6>-------------]
    
    VERSE
    CHORUS
    
    JUST BEFORE BRIDGE
    g]----]
    d]----]
    a]----]
    e]-6>-]
    
    PLAY INTRO AS BRIDGE
    VERSE
     

    Тональность:

    Нет текста!



    Назад
    Рекомендуем посмотреть другие песни исполнителя «Good Riddance»:

    • Комментарии Facebook ()
    • Комментарии ВКонтакте



    Добавить в Избранное Браузера
    Сохранить здесь Очистить


    x

    0


    +
    -

    +
    -

    -

    Авторизация





    Зарегистрироваться

    M

    Дата и время

    • 05:03:43
       

    Социальные ссылки


    Наши приложения

    • Muzbank App Play Market
    • Muzbank Amazon App