MUZBANK



A Most Complete Bank Of Music Information

МУЗЫКАЛЬНО-ИНФОРМАЦИОННЫЙ БАНК

Поиск по сайту







    GGorillaz • El Maana (аккорды и текст - chords & lyrics)


    258

    Print

    Видео «El Maana (Gorillaz)»

    Видео клипы к песне подбираются автоматически сайтом youtube. Возможны некоторые несоответствия клипов песне.

    ↑ Спрятать рекламу ↑



    Download


    Guitar 1
    e-----12-0--10-0--8-0--7-0------|
    B-------------------------------|
    G-------------------------------|
    D-------------------------------|
    A-------------------------------|
    E-------------------------------|
    
    
    Guitar 2
    (which you can just hear behind guitar 1)
    e--------------------------------------------------------------------|
    B--------------------------------------------------------------------|
    G--------------------------------------------------------------------|
    D--------------------------------------------------------------------|
    A--------------------------------------------------------------------|
    E---12-12-12-12-12-12-15-10--10-10-10-10-10-8-8-8-8-8-8-10-7-7-7-7-7-|
    
    
    Guitar 3
    e-------------------------------------------------------------------|
    B-------------------------------------------------------------------|
    G-------------------------------------------------------------------|
    D---7-10-10-19--7-10-10-17--7-10-10-19-7-10-10-17-------------------|
    A-------------------------------------------------------------------|
    E-------------------------------------------------------------------|
    
    
    Guitar 4
    e-------------------------------------------------------------------|
    B-------------------------------------------------------------------|
    G----------------------------14-------------------------------------|
    D---17-15-15-7pm7pm-10-12-13~--12-12-10-7---------------------------|
    A-------------------------------------------------------------------|
    E-------------------------------------------------------------------|
    
    Verse riff (acoustic)
    e---0-0-0-0-0-0-0-0-0-0-0-0-0-0-0-0-0-0-0-0-0-0-0-0-0-0-0-0-0-0-0-0-|
    B---0-0-0-0-0-0-0-0-0-0-0-0-0-0-0-0-1-1-1-1-1-1-1-1-0-0-0-0-0-0-0-0-|
    G---6-6-6-6-6-6-6-6-4-4-4-4-4-4-4-4-2-2-2-2-2-2-2-2-0-0-0-0-0-0-0-0-|
    D---7-7-7-7-7-7-7-7-5-5-5-5-5-5-5-5-3-3-3-3-3-3-3-3-0-0-0-0-0-0-0-0-|
    A-------------------------------------------------------------------|
    E-------------------------------------------------------------------|
    
    Chorus
    Play the 1st 2 chords 16 times but on the 3rd and 4th chord play them only 8.
    
    e---1-1-1-1-1-1-1-1-0-0-0-0-0-0-0-0-1-1-1-1-1-1-1-1-3-3-3-3-3-3-3-3-|
    B---1-1-1-1-1-1-1-1-1-1-1-1-1-1-1-1-1-1-1-1-1-1-1-1-3-3-3-3-3-3-3-3-|
    G---2-2-2-2-2-2-2-2-2-2-2-2-2-2-2-2-2-2-2-2-2-2-2-2-4-4-4-4-4-4-4-4-|
    D---3-3-3-3-3-3-3-3-3-3-3-3-3-3-3-3-3-3-3-3-3-3-3-3-6-6-6-6-6-6-6-6-|
    A-------------------------------------------------------------------|
    E-------------------------------------------------------------------|
    
    Back to verse riff-x2
    Then chorus.
    Then verse riff again.
    Then...
    
    Cello bridge
    e--------------------------------------------------------------------------|
    B--------------------------------------------------------------------------|
    G--------------------------------------------------------------------------|
    D------------------------------------------------------------------- - x10-|
    A---0-7-0-7-3-10pm-10-10-2--8-4-8-9-7-5-3-1~-0-----------------------------|
    E--------------------------5----------------3------------------------------|
    

    Тональность:

    Нет текста!



    Назад
    Рекомендуем посмотреть другие песни исполнителя «Gorillaz»:

    • Комментарии Facebook ()
    • Комментарии ВКонтакте



    Добавить в Избранное Браузера
    Сохранить здесь Очистить


    x

    0


    +
    -

    +
    -

    -

    Авторизация





    Зарегистрироваться

    M

    Дата и время

    • 19:43:34
       

    Социальные ссылки


    Наши приложения

    • Muzbank App Play Market
    • Muzbank Amazon App