MUZBANK



A MOST COMPLETE BANK OF MUSIC INFORMATION

МУЗЫКАЛЬНО-ИНФОРМАЦИОННЫЙ БАНК







    GGorillaz • Every Planet We Reach Is Dead (аккорды и текст - chords & lyrics)


    375

    Print

    Видео «Every Planet We Reach Is Dead (Gorillaz)»

    Видео клипы к песне подбираются автоматически сайтом youtube. Возможны некоторые несоответствия клипов песне.

    ↑ Спрятать рекламу ↑





    Intro
    
    E|-------------------------------------------------|
    B|-3/5-5-0-3-5-0-3-5-------3/5-5-0-3-5-0-3-5-------|
    G|-------------------2-0------------------2-0------|
    D|-------------------------------------------------| x2
    A|-------------------------------------------------|
    E|-------------------------------------------------|
    
    It gets slow at this point
    
    Intro outro
    
    E|----------|
    B|----------|
    G|----------|
    D|-2b-2-2---|
    A|--------3-|
    E|----------|
    
    Verse
    
    E ---------------------------|
    B|---------------------------|
    G|---------------------------|
    D|---------------------------|
    A|-7----7----5----3---3----2-|
    E ---------------------------|
    
    Outro of verse
    
    Play intro 3 times then on the 4th play this
    
    E|-------------------3-----------|
    B|-5-5-5-5-5-5-5----5-3----------|
    G|---------------------------2-0-|
    D|-------------------------------|
    A|-------------------------------|
    E|-------------------------------|
    

    Тональность:

    Это должно быть в ТОП-листе! - Топ-лист композиций



    Назад
    Рекомендуем посмотреть другие песни исполнителя «Gorillaz»:

    • Комменты Fb ()
    • Комменты ВК



    Добавить в Избранное Браузера
    Сохранить здесь Очистить


    x

    0


    +
    -

    +
    -

    -

    Авторизация





    Зарегистрироваться

    M

    Дата и время

    • 13:37:36
       

    Социальные ссылки


    Наши приложения

    • Muzbank App Play Market
    • Muzbank Amazon App