MUZBANK



A Most Complete Bank Of Music Information

МУЗЫКАЛЬНО-ИНФОРМАЦИОННЫЙ БАНК

Поиск по сайту







    GGorillaz • Feel Good Inc (аккорды и текст - chords & lyrics)


    1139

    Print

    Видео «Feel Good Inc (Gorillaz)»

    Видео клипы к песне подбираются автоматически сайтом youtube. Возможны некоторые несоответствия клипов песне.

    ↑ Спрятать рекламу ↑



    Download


    (Transcribed for guitar)
    E|----------------------------------|
    B|----------------------------------|
    G|----------------------------------|
    D|----------------------------------|
    A|---------2-1----------------------|
    C|-3-3-5-6-----8-8-11-10-6-3----/15-|
    
    The last slide occours iregularly, with various dist/muting, listen for it.
    (If you listen very closely you can hear the bass sliding just a bit back again
    before starting the riff again.)
    
    guitar plays this:
    
    E|-11----11--------------------------------------|
    B|----11----11---14---14----12----12-------------|
    G|------------------13---13----13-----8-/10⁄8--/-|
    D|-----------------------------------------------|
    A|-----------------------------------------------|
    C|-----------------------------------------------|
    
    Bass plays this before chorus.
    Play it palm-muted.
    E|-------------------|
    B|-------------------|
    G|-------------------|
    D|-------------------|
    A|-------------------|
    C|--15-13-10-6-3-X-X-|
    
    D#m A#m
    Windmill, Windmill for the land.
    G#m A#m
    Learn forever hand in hand
    D#m A#m
    Take it all in on your stride
    G#m A#m
    It is sticking, falling down
    D#m A#m
    Love forever love is free
    G#m A#m
    Let's turn forever you and me
    D#m A#m
    windmill, windmill for the land
    G#m
    Is everybody in?
    
    play this riff three times before next verse
    
    E|---------------|
    B|---------------|
    G|--6-6-6-6-6-6--|
    D|--6-6-6-8-6-8--|
    A|--4-4-4-4-4-4--|
    C|---------------| X3
    
    D#m G#m A#m or A#m
    E|--6---4---6------1-|
    B|--7---4---6------2-|
    G|--8---4---6------3-|
    D|--8---6---8------3-|
    A|--6---6---8------1-|
    C|-------------------|
    
    Two notes are repeated throughout the chorus,if you feel like adding them, you
    can play chorus chords like this:
    D#m A#m G#m
    E|---6--6--4--6--4--6---------x-x-x-6-x-6------4-4-4-6-4-6-|
    B|---4--4--4--4--4--4---------9-9-9-6-9-6------4-4-4-4-4-4-|
    G|---3--3--3--3--3--3---------6-6-6-6-6-6------4-4-4-4-4-4-|
    D|--(x)(x)(x)(x)(x)(x)--------8-8-8-8-8-8------6-6-6-6-6-6-|
    A|--(6)(6)(6)(6)(6)(6)--------8-8-8-8-8-8------6-6-6-6-6-6-|
    C|---------------------------------------------------------|
    

    Тональность:

    Нет текста!



    Назад
    Рекомендуем посмотреть другие песни исполнителя «Gorillaz»:

    • Комментарии Facebook ()
    • Комментарии ВКонтакте



    Добавить в Избранное Браузера
    Сохранить здесь Очистить


    x

    0


    +
    -

    +
    -

    -

    Авторизация





    Зарегистрироваться

    M

    Дата и время

    • 06:55:42
       

    Социальные ссылки


    Наши приложения

    • Muzbank App Play Market
    • Muzbank Amazon App