MUZBANK



A Most Complete Bank Of Music Information

МУЗЫКАЛЬНО-ИНФОРМАЦИОННЫЙ БАНК

Поиск по сайту







    GGorillaz • Re-Hash (аккорды и текст - chords & lyrics)


    296

    Print

    Видео «Re-Hash (Gorillaz)»

    Видео клипы к песне подбираются автоматически сайтом youtube. Возможны некоторые несоответствия клипов песне.

    ↑ Спрятать рекламу ↑



    Download



    intro
    играется с дребезжанием
    E|-x-x-x-x-x-x-x-x-x-x-x-x-x-x-x--x-x-x-|
    B|-x-x-x-x-x-x-x-x-x-x-x-x-x-x-x--x-x-x-|
    G|-x-x-x-x-x-x-x-x-x-x-x-x-x-x-x--x-x-x-|
    D|-5-5-5-5-5-3-3-3-3-3-3-5-5-5-3--3-4-5-|
    A|-5-5-5-5-5-3-3-3-3-3-3-5-5-5-3--3-4-5-|
    E|-3-3-3-3-3-1-1-1-1-1-1-3-3-3-1--1-2-3-|  x4
    
    D|-5-5-5-5-5-3-3-3-3-3-3-5-5-5-3--3-4-5-|
    A|-5-5-5-5-5-3-3-3-3-3-3-5-5-5-3--3-4-5-| riff 1
    E|-3-3-3-3-3-1-1-1-1-1-1-3-3-3-1--1-2-3-|
    
    It's a sweet sensation over the dub
    
    D|-5-5-5-5-5-8-8-8-8-8--10-10-10---8--8-|
    A|-5-5-5-5-5-8-8-8-8-8--10-10-10---8--8-| riff 2
    E|-3-3-3-3-3-6-6-6-6-6--8--8--8----6--6-|
    
    I want a situation but  don't want to stop
    riff 1
    It's the drugs for sober over the dub
    riff 2
    With the sweetest inspiration don't want to stop
    
    chorus:
    riff 1
    It's the money as dub (x8)
    It's the eye of the storm
    
    куплет как первый
    
    chorus
    
    Bah bah bah bah bah bah
    
    G|-3--6--3--8--3-3--6--3--8--8--6-|  раз 10
    chorus
    

    Тональность:

    Нет текста!



    Назад
    Рекомендуем посмотреть другие песни исполнителя «Gorillaz»:

    • Комментарии Facebook ()
    • Комментарии ВКонтакте



    Добавить в Избранное Браузера
    Сохранить здесь Очистить


    x

    0


    +
    -

    +
    -

    -

    Авторизация





    Зарегистрироваться

    M

    Дата и время

    • 20:39:01
       

    Социальные ссылки


    Наши приложения

    • Muzbank App Play Market
    • Muzbank Amazon App