MUZBANK



A Most Complete Bank Of Music Information

МУЗЫКАЛЬНО-ИНФОРМАЦИОННЫЙ БАНК








    ГГражданская оборона • Песня барсука (аккорды и текст - chords & lyrics)


    1580

    Print

    Видео «Песня барсука (Гражданская оборона)»

    Видео клипы к песне подбираются автоматически сайтом youtube. Возможны некоторые несоответствия клипов песне.

    ↑ Спрятать рекламу ↑



    Download


    Вступление:
    F#m E F#m D A 
    F#m E F#m D A
    F#m E F#m D A C#
    
    Куплет:
    F#m A E F#m
    D C# F#m C#
    F#m A C# D
    A E D C#
    
    F#m D E A  C#
    D       A  C#
    
    E|----------------------------------------------------------|
    B|----------------------------------------------------------|
    G|----------------------------------------------------------|
    D|-4-4-2------------------------------4-6-7-7-7-6-4-6-7-4---|
    A|-------4-0-2-0-2-4---4-4-5-4-2-0--------------------------|
    E|-------------------2-------------2------------------------|
    
    
    E|-------------2-----------------------------------r--------|
    B|-------------t-----------------------------------e--------|
    G|-------------i-----------------------------------p--------|
    D|-7-7-9-7-6-4-m-4-4-6-7-7-6-----4-7-9-11-11-9-6-7-e--------|
    A|-------------e-------------7-4-------------------a--------|
    E|-------------s-----------------------------------t--------|

    Тональность:

    Нашли ошибку?



    Назад
    Рекомендуем посмотреть другие песни исполнителя «Гражданская оборона»:

    • Комменты Fb ()
    • Комменты ВК



    Добавить в Избранное Браузера
    Сохранить здесь Очистить


    x

    0


    +
    -

    +
    -

    -

    Авторизация





    Зарегистрироваться

    M

    Дата и время

    • 14:09:00
       

    Социальные ссылки


    Наши приложения

    • Muzbank App Play Market
    • Muzbank Amazon App