MUZBANK



A Most Complete Bank Of Music Information

МУЗЫКАЛЬНО-ИНФОРМАЦИОННЫЙ БАНК

Поиск по сайту







    ГГражданская Оборона • Песня о китайском народном добровольце (аккорды и текст - chords & lyrics)


    413

    Print

    Видео «Песня о китайском народном добровольце (Гражданская Оборона)»

    Видео клипы к песне подбираются автоматически сайтом youtube. Возможны некоторые несоответствия клипов песне.

    ↑ Спрятать рекламу ↑



    Download


               A                    Cm#
        Через горы, по травам и пескам
              D         E                A
        Мимо тихих степных маньчжурских сёл
           A                Cm#
        К водам синей речки Октаган
    Fm#  D         E     A
        Юный доброволец шёл (3 раза)
    
    К нам он шёл тот китаец молодой
    Шёл наш брат, чтоб в сраженьи нам помочь
    Чтоб помочь нам справиться с бедой
    Гнать американцев прочь.
    
    Слався наш отважный брат
    Мы не забудем подвиг твой
    Слава-слава отважным добровольцам
    Слава нашей дружбе боевой.
    
    Соляк:
    
    e|-----------------------^9-9-9-10-10-9-9----------------------|
    B|-----9-^10-10-12-10-12------------------12-12-10-10-12-12-~10|
    G|9-11---------------------------------------------------------|
    D|-------------------------------------------------------------|
    A|-------------------------------------------------------------|
    E|-------------------------------------------------------------|
    
    e|-14-12-10-12-10-9----9-9----~9-10-9--------------------------|
    B|------------------12-----12---------12-10-10-9-^10-----------|
    G|---------------------------------------------------11-11-----|
    D|-------------------------------------------------------------|
    A|-------------------------------------------------------------|
    E|-------------------------------------------------------------|
    
    e|-10-9----------------------|-10-9----------------|
    B|------12-10-10-9-^10-------|------12-10-10-9-~10-|
    G|---------------------10-11-|---------------------|
    D|---------------------------|---------------------|
    A|---------------------------|---------------------|
    E|---------------------------|---------------------|
    
    Через горы, по травам и пескам
    Мимо тихих степных манчжурских сёл
    К водам синей речки Октаган
    Юный доброволец шёл (3 раза)
    

    Тональность:

    Нет текста!



    Назад
    Рекомендуем посмотреть другие песни исполнителя «Гражданская Оборона»:

    • Комментарии Facebook ()
    • Комментарии ВКонтакте



    Добавить в Избранное Браузера
    Сохранить здесь Очистить


    x

    0


    +
    -

    +
    -

    -

    Авторизация





    Зарегистрироваться

    M

    Дата и время

    • 12:00:37
       

    Социальные ссылки


    Наши приложения

    • Muzbank App Play Market
    • Muzbank Amazon App