MUZBANK



A Most Complete Bank Of Music Information

МУЗЫКАЛЬНО-ИНФОРМАЦИОННЫЙ БАНК

Поиск по сайту







    GGreen Day • All The Time (аккорды и текст - chords & lyrics)


    288

    Print

    Видео «All The Time (Green Day)»

    Видео клипы к песне подбираются автоматически сайтом youtube. Возможны некоторые несоответствия клипов песне.

    ↑ Спрятать рекламу ↑



    Download



    Intro:
    E D5 A5 E D5 A5
    E|------------------------|------------------------|
    B|------------------------|-9--9-------------------|
    G|-9--9-----7-------------|-9--9-----7-------------|
    D|-9--9--#--7--#--7--#----|-9--9--#--7--#--7--#----|
    A|-7--7-----5-----7-------|-7--7-----5-----7-------|
    E|----------------5-----0-|----------------5-----0-|
    1 & 2 & 3 & 4 & 1 & 2 & 3 & 4 &
    
    
    E D5 A5 E D5 A5 E D5 A5
    E|------------------------|------------------------||------------------------|
    B|-9--9-------------------|-9--9-------------------||-9--9-------------------|
    G|-9--9-----7-------------|-9--9-----7------------.||-9--9-----7-------------|
    D|-9--9--#--7--#--7--#----|-9--9--#--7--#--7--#---.||-9--9--#--7--#--7--#----|
    A|-7--7-----5-----7-------|-7--7-----5-----7-------||-7--7-----5-----7-------|
    E|----------------5-----0-|----------------5-----0-||----------------5-----0-|
    1 & 2 & 3 & 4 & 1 & 2 & 3 & 4 & 1 & 2 & 3 & 4 &
    
    
    E G#5 A5 G5 D5
    E|-----------------------||------------------------|------------------------||
    B|-9--9--9--9--9--9--9---||------------------------|----------7==7--7--7----||
    G|-9--9--9--9--9--9--9---||.-----------------------|----------7==7--7--7---.||
    D|-9--9--9--9--9--9--9---||.6--7--7-----7--7-----5===5--5-----7==7--7--7---.||
    A|-7--7--7--7--7--7--7---||-6--7--7-----7--7-----5===5--5-----5==5--5--5----||
    E|-0--0--0--0--0--0--0---||-4--5--5-----5--5--0--3===3--3--0--------------0-||
    1 & 2 & 3 & 4 & 1 & 2 & 3 & 4 & 1 & 2 & 3 & 4 &
    
    
    
    Chorus:
    G#5 A5 G5 D
    E|------------------------|-------------------------|
    B|------------------------|----------7==7--7--7-----|
    G|------------------------|----------7==7--7--7-----|
    D|-6--7--7-----7--7-----5===5--5-----7==7--7--7-----|
    A|-6--7--7-----7--7-----5===5--5-----5==5--5--5-----|
    E|-4--5--5-----5--5--0--3===3--3--0--------------0--|
    1 & 2 & 3 & 4 & 1 & 2 & 3 & 4 &
    1. All the time, everytime I need it.
    2. All the time, New Year's resolutions;
    3. [Instrumental]
    4. All the time, where did all the time go?
    
    G#5 A5 G5 D
    E|------------------------|-------------------------|
    B|------------------------|----------7==7--7--7-----|
    G|------------------------|----------7==7--7--7-----|
    D|-6--7--7-----7--7-----5===5--5-----7==7--7--7-----|
    A|-6--7--7-----7--7-----5===5--5-----5==5--5--5-----|
    E|-4--5--5-----5--5--0--3===3--3--0--------------0--|
    1 & 2 & 3 & 4 & 1 & 2 & 3 & 4 &
    What's the time? I'd say the time is right.
    How soon that we forget
    
    It's too late to say good night.
    
    G#5 A5 G5 D
    E|------------------------|-------------------------|
    B|------------------------|----------7==7--7--7-----|
    G|------------------------|----------7==7--7--7-----|
    D|-6--7--7-----7--7-----5===5--5-----7==7--7--7-----|
    A|-6--7--7-----7--7-----5===5--5-----5==5--5--5-----|
    E|-4--5--5-----5--5--0--3===3--3--0--------------0--|
    1 & 2 & 3 & 4 & 1 & 2 & 3 & 4 &
    Here's to me. Let's find another reason.
    Doing time and loving every minute.
    
    Time files when you're having fun, yeah.
    
    G#5 A5 G5 D
    E|------------------------|-------------------------|
    B|------------------------|----------7==7--7--7-----|
    G|------------------------|----------7==7--7--7-----|
    D|-6--7--7-----7--7-----5===5--5-----7==7--7--7-----|
    A|-6--7--7-----7--7-----5===5--5-----5==5--5--5-----|
    E|-4--5--5-----5--5--0--3===3--3--0--------------0--|
    1 & 2 & 3 & 4 & 1 & 2 & 3 & 4 &
    Down the hatch and a bad attitude. Sal - [To Verse 1]
    Live it up on another let down. Sal - [To Verse 2]
    [To Coda]
    Time's up when you work like a dog Sal - [To Ending]
    
    
    
    Verse:
    E D5 A5 E D5 A5 E D5 A5
    E|------------------------|------------------------|------------------------|
    B|-9--9-------------------|-9--9-------------------|-9--9-------------------|
    G|-9--9-----7-------------|-9--9-----7-------------|-9--9-----7-------------|
    D|-9--9--#--7--#--7--#----|-9--9--#--7--#--7--#----|-9--9--#--7--#--7--#----|
    A|-7--7-----5-----7-------|-7--7-----5-----7-------|-7--7-----5-----7-------|
    E|----------------5-----0-|----------------5-----0-|----------------5-----0-|
    1 & 2 & 3 & 4 & 1 & 2 & 3 & 4 & 1 & 2 & 3 & 4 &
    1. -ud. Wasting time, wasting time down on
    2. -ud. Promises, promises it was
    
    E D5 A5 E D5 A5 E D5 A5
    E|------------------------|------------------------||------------------------|
    B|-9--9-------------------|-9--9-------------------||-9--9-------------------|
    G|-9--9-----7-------------|-9--9-----7------------.||-9--9-----7-------------|
    D|-9--9--#--7--#--7--#----|-9--9--#--7--#--7--#---.||-9--9--#--7--#--7--#----|
    A|-7--7-----5-----7-------|-7--7-----5-----7-------||-7--7-----5-----7-------|
    E|----------------5-----0-|----------------5-----0-||----------------5-----0-|
    1 & 2 & 3 & 4 & 1 & 2 & 3 & 4 & 1 & 2 & 3 & 4 &
    Bumfuck Road, and I don't know where the hell itll go. Heirloom
    all set in stone, cross my heart and i hope to die. Sugar
    
    E D5 A5 E D5 A5 E D5 A5
    E|------------------------|------------------------||------------------------|
    B|-9--9-------------------|-9--9-------------------||-9--9-------------------|
    G|-9--9-----7-------------|-9--9-----7------------.||-9--9-----7-------------|
    D|-9--9--#--7--#--7--#----|-9--9--#--7--#--7--#---.||-9--9--#--7--#--7--#----|
    A|-7--7-----5-----7-------|-7--7-----5-----7-------||-7--7-----5-----7-------|
    E|----------------5-----0-|----------------5-----0-||----------------5-----0-|
    1 & 2 & 3 & 4 & 1 & 2 & 3 & 4 & 1 & 2 & 3 & 4 &
    and huffing fumes and I'm picking up the pace, and I'm gonna smash straight
    [To Chorus 1]
    fix, dirty tricks and a trick question; guess i should of read between theline
    [keep going]
    E
    E|-----------------------|
    B|-9--9--9--9--9--9--9---|
    G|-9--9--9--9--9--9--9---|
    D|-9--9--9--9--9--9--9---|
    A|-7--7--7--7--7--7--7---|
    E|-0--0--0--0--0--0--0---|
    1 & 2 & 3 & 4 &
    [To Chorus 3, Instrumental Only]
    
    
    
    Coda:
    E|------------------------|------------------------|
    B|----------7-----7--7----|------------------------|
    G|----------7-----7--7----|------------------------|
    D|-5--5-----7-----7--7----|-------x--6--7-----6----|
    A|-5--5-----5-----5--5----|-7-----x--4--5-----4----|
    E|-3--3--0--------------0-|-5--------------------0-|
    1 & 2 & 3 & 4 & 1 & 2 & 3 & 4 &
    
    G5 B5 C5 B5 A5 C#5 D5 C#5 G5 B5 C5 B5
    E|------------------------|------------------------|------------------------|
    B|------------------------|------------------------|------------------------|
    G|------------------------|------------------------|------------------------|
    D|----------4--5-----4----|----------6--7-----6----|----------4--5-----4----|
    A|-5-----x--2--3-----2----|-7-----x--4--5-----4----|-5-----x--2--3-----2--0-|
    E|-3-----x--------------0-|-5-----x--------------0-|-3-----x----------------|
    1 & 2 & 3 & 4 & 1 & 2 & 3 & 4 & 1 & 2 & 3 & 4 &
    Having the time of my life. Watching the clock tick.
    
    G5 B5 C5 B5 A5 C#5 D5 C#5
    E|------------------------|------------------------|
    B|------------------------|------------------------|
    G|------------------------|------------------------|
    D|----------6--7-----6----|----------4--5-----4----|
    A|-7-----x--4--5-----4----|-5-----x--2--3-----2--0-|
    E|-5-----x--------------0-|-3-----x----------------|
    1 & 2 & 3 & 4 & 1 & 2 & 3 & 4 &
    Having the time of my life.
    
    A5 C#5 D5 C#5 G5 B5 C5 B5
    E|------------------------|------------------------|
    B|------------------------|------------------------|
    G|------------------------|------------------------|
    D|----------6--7-----6----|----------4--5-----4----|
    A|-7-----x--4--5-----4----|-5-----x--2--3-----2----|
    E|-5-----x--------------0-|-3-----x--------------0-|
    1 & 2 & 3 & 4 & 1 & 2 & 3 & 4 &
    Watching the clock tick. [To Chorus 4]
    
    
    Ending:
    E D5 A5 E D5 A5
    E|------------------------|------------------------|
    B|------------------------|-9--9-------------------|
    G|-9--9-----7-------------|-9--9-----7-------------|
    D|-9--9--#--7--#--7--#----|-9--9--#--7--#--7--#----|
    A|-7--7-----5-----7-------|-7--7-----5-----7-------|
    E|----------------5-----0-|----------------5-----0-|
    1 & 2 & 3 & 4 & 1 & 2 & 3 & 4 &
    -ud.
    
    E D5 A5 E D5 A5
    E|------------------------|------------------------|
    B|------------------------|-9--9-------------------|
    G|-9--9-----7-------------|-9--9-----7-------------|
    D|-9--9--#--7--#--7--#----|-9--9--#--7--#--7--#----|
    A|-7--7-----5-----7-------|-7--7-----5-----7-------|
    E|----------------5-----0-|----------------5-----0-|
    1 & 2 & 3 & 4 & 1 & 2 & 3 & 4 &
    
    
    E D5 A5 E D5 A5
    E|------------------------|------------------------|
    B|------------------------|-9--9-------------------|
    G|-9--9-----7-------------|-9--9-----7-------------|
    D|-9--9--#--7--#--7--#----|-9--9--#--7--#--7--#----|
    A|-7--7-----5-----7-------|-7--7-----5-----7-------|
    E|----------------5-----0-|----------------5-----0-|
    1 & 2 & 3 & 4 & 1 & 2 & 3 & 4 &
    
    
    E D5 A5 E G#5 A5
    E|------------------------|-----------------------|----------------|
    B|------------------------|-9--9--9--9--9--9--9---|----------------|
    G|-9--9-----7-------------|-9--9--9--9--9--9--9---|----------------|
    D|-9--9--#--7--#--7--#----|-9--9--9--9--9--9--9---|--6--7--7--#--#-|
    A|-7--7-----5-----7-------|-7--7--7--7--7--7--7---|--6--7--7-------|
    E|----------------5-----0-|-0--0--0--0--0--0--0---|--4--5--5-------|
    1 & 2 & 3 & 4 & 1 & 2 & 3 & 4 & 1 & 2 3 4
    
    
    
    Lyrics:
    All the time, everytime i need it.
    What's the time? I'd say the time is right.
    Here's to me. Let's find another reason.
    Down the hatch and a bad attitude. Salud.
    
    Wasting time, wasting time down on Bumfuck Road,
    and I don't know where the hell it'll go.
    Heirloom and huffing fumes, and I'm picking up the
    pace, and I'm gonna smash straight into a wall.
    
    All the time, New Year's resolutions;
    how soon that we forget.
    Doing and loving every minute.
    Live it up another let down. Salud.
    
    Promises, promise, it was all set in stone,
    cross my heart and i hope to die.
    Sugar fix, dirty tricks, and a trick question;
    guess i should of read between the lines.
    
    Having the time of my life.
    Watching the clock tick.
    Having the time of my life.
    Watching the clock tick.
    
    All the time, where did all the time go?
    It's too late to say good night.
    Time flies when you're having fun, yeah.
    Time's up when you work like a dog. Salud.
    

    Тональность:

    Нет текста!



    Назад
    Рекомендуем посмотреть другие песни исполнителя «Green Day»:

    • Комментарии Facebook ()
    • Комментарии ВКонтакте



    Добавить в Избранное Браузера
    Сохранить здесь Очистить


    x

    0


    +
    -

    +
    -

    -

    Авторизация





    Зарегистрироваться

    M

    Дата и время

    • 15:02:57
       

    Социальные ссылки


    Наши приложения

    • Muzbank App Play Market
    • Muzbank Amazon App