MUZBANK



A Most Complete Bank Of Music Information

МУЗЫКАЛЬНО-ИНФОРМАЦИОННЫЙ БАНК

Поиск по сайту







    GGreen Day • Haushinka (аккорды и текст - chords & lyrics)


    179

    Print

    Видео «Haushinka (Green Day)»

    Видео клипы к песне подбираются автоматически сайтом youtube. Возможны некоторые несоответствия клипов песне.

    ↑ Спрятать рекламу ↑



    Download



     
    
    
    HAUSHINKA
    green day
    Tabbed by KoRny Freak 
    
    intro
    |---------|
    |---------|
    |-5-7:----|
    |-5-7:----|
    |-3-5:----|
    |---------|
    
    verse
    |-----------------------|
    |-7-----8----10-----8---|
    |---7-----7-----7-----7-|
    |-----------------------|
    |-----------------------|
    |-----------------------|
    
    chorus
    |-------------------------------------------------------------|
    |-------------------------------------------------------------|
    |-7-7-7-7-7-7-7-7-5-5-5-5-5-5-5-5-----------------------------|
    |-7-7-7-7-7-7-7-7-5-5-5-5-5-5-5-5-5-5-5-5-5-5-5-5-3-3-3-3-5-5-|
    |-5-5-5-5-5-5-5-5-3-3-3-3-3-3-3-3-5-5-5-5-5-5-5-5-3-3-3-3-5-5-|
    |---------------------------------3-3-3-3-3-3-3-3-1-1-1-1-3-3-|
    
    bridge
    |-------------------------------------------------------------|
    |-------------------------------------------------------------|
    |-------------------------------------------------------------|
    |-9-9-9-9-9-9-9-7-7-7-7-7-7-7-4/5-5-5-5-5-5-5-4/5-5-5-5-5-5-5-|
    |-9-9-9-9-9-9-9-7-7-7-7-7-7-7-4/5-5-5-5-5-5-5-4/5-5-5-5-5-5-5-|
    |-7-7-7-7-7-7-7-5-5-5-5-5-5-5-2/3-3-3-3-3-3-3-2/3-3-3-3-3-3-3-|
    pm_______________________________|
    |-------------------------------------------------------|
    |-------------------------------------------------------|
    |-------------------------------------------------------|
    |-5-5-5-5-5-5-5-5-5-5-5-5-5-5-5-5-5-5-5-5-5-5-5-5-5-5-5-|
    |-5-5-5-5-5-5-5-5-5-5-5-5-5-5-5-5-5-5-5-5-5-5-5-5-5-5-5-|
    |-3-3-3-3-3-3-3-3-3-3-3-3-3-3-3-3-3-3-3-3-3-3-3-3-3-3-3-|
    
    
    post bridge
    |-----------------------------|
    |-----------------------------|
    |-------7-7-7-----------------|
    |-7-7-7-7-7-7-5-5-5-5-5-7-7-7-|
    |-7-7-7-5-5-5-5-5-5-5-5-7-7-7-|
    |-5-5-5-------3-3-3-3-3-5-5-5-|
     

    Тональность:

    Нет текста!



    Назад
    Рекомендуем посмотреть другие песни исполнителя «Green Day»:

    • Комментарии Facebook ()
    • Комментарии ВКонтакте



    Добавить в Избранное Браузера
    Сохранить здесь Очистить


    x

    0


    +
    -

    +
    -

    -

    Авторизация





    Зарегистрироваться

    M

    Дата и время

    • 14:49:24
       

    Социальные ссылки


    Наши приложения

    • Muzbank App Play Market
    • Muzbank Amazon App