MUZBANK



A Most Complete Bank Of Music Information

МУЗЫКАЛЬНО-ИНФОРМАЦИОННЫЙ БАНК

Поиск по сайту







    GGreen Day • Jaded (аккорды и текст - chords & lyrics)


    285

    Print

    Видео «Jaded (Green Day)»

    Видео клипы к песне подбираются автоматически сайтом youtube. Возможны некоторые несоответствия клипов песне.

    ↑ Спрятать рекламу ↑



    Download


    Intro :
    E|--------------------------------------------------------|
    B|--------------------------------------------------------|
    G|--6-6--6------------------------------------------------|
    D|--7-7--7--7-----5-5---7-7--7----------------7-----------|
    A|--7-7--7--7-----5-5---5-5--7--7--7--7--5-5--5-----------|
    E|--5-5-----5-----3-3--------5--5--5--5--3-3----0---------|
    
    E|--------------------------------------------------------|
    B|--------------------------------------------------------|
    G|--------------------------------------------------------|
    D|--------------------7----------------------7------------|
    A|--7-7---7--7---5-5--5-----7-7---7-7---5-5--5------------|
    E|--5-5---5--5---3-3----0---5-5---5-5---3-3-----0---------|
    
    1st and 2nd Verses:
    
    E|--------------------------------------------------------|
    B|--------------------------------------------------------|
    G|--------------------------------------------------------|
    D|--------------------7----------------------7------------|
    A|--7-7---7--7---5-5--5-----7-7---7-7---5-5--5------------|
    E|--5-5---5--5---3-3----0---5-5---5-5---3-3-----0---------|
    
    LAST TIME DO THIS
    
    E|----------------|
    B|----------------|
    G|----------------|
    D|----------------|
    A|--7-7-7--7--7---|
    E|--5-5-5--5--5---|
    
    Chorus:
    
    E|--------------------------------------------------------|
    B|--77777777777777777-------------------------------------|
    G|--77777777777777777-------------------------------------|
    D|--77777777777777777-------------------------------------|
    A|--55555555555555555--7-7--7-7--5-5-7--7-7--7-7--5-5--7--|
    E|---------------------5-5--5-5--3-3-5--5-5--5-5--3-3--5--|
    
    E|--------------------------------------------------------|
    B|--77777777777777777--8---999999999999-------------------|
    G|--77777777777777777--8---999999999999-------------------|
    D|--77777777777777777--8---999999999999---------------7---|
    A|--55555555555555555--6---777777777777-7-7--7-7--5-5-5-0-|
    E|--------------------------------------5-5--5-5--3-3-----|
    
    
    E|--------------------------------------------------------|
    B|--------------------------------------------------------|
    G|--------------------------------------------------------|
    D|--------------------7----------------------7------------|
    A|--7-7---7--7---5-5--5-----7-7---7-7---5-5--5------------|
    E|--5-5---5--5---3-3----0---5-5---5-5---3-3-----0---------|
    
    
    E|--------------------------------------------------------|
    B|--------------------------------------------------------|
    G|--------------------------------------------------------|
    D|------------------7-----------------7-------------------|
    A|-7-7-7-7-----5-5--5--7-7--7-7--5-5--5-0--7-7-7-7-7-7----|
    E|-5-5-5-5-----3-3-----5-5--5-5--3-3-------5-5-5-5-5-5----|
    
    
    E|--------------------------------------------------------|
    B|--------------------------------------------------------|
    G|--------------------------------------------------------|
    D|--------------------7----------------------7------------|
    A|--7-7---7--7---5-5--5-----7-7---7-7---5-5--5------------|
    E|--5-5---5--5---3-3----0---5-5---5-5---3-3-----0---------|
    
    E|--------------------------------------------------------|
    B|--------------------------------------------------------|
    G|--------------------------------------------------------|
    D|--------------------7----------------------7------------|
    A|--7-7---7--7---5-5--5-----7-7---7-7---5-5--5------------|
    E|--5-5---5--5---3-3----0---5-5---5-5---3-3-----0---------|
    
    
    E|--------------------------------------------------------|
    B|--------------------------------------------------------|
    G|--------------------------------------------------------|
    D|-----------------7------------------7--7----------------|
    A|--7-7---7----5---5-----7-7---7--5---5--5--7-------------|
    E|--5-5---5----3-----0---5-5---5--3---------5-------------|
    

    Тональность:

    Нет текста!



    Назад
    Рекомендуем посмотреть другие песни исполнителя «Green Day»:

    • Комментарии Facebook ()
    • Комментарии ВКонтакте



    Добавить в Избранное Браузера
    Сохранить здесь Очистить


    x

    0


    +
    -

    +
    -

    -

    Авторизация





    Зарегистрироваться

    M

    Дата и время

    • 17:38:04
       

    Социальные ссылки


    Наши приложения

    • Muzbank App Play Market
    • Muzbank Amazon App