MUZBANK



A Most Complete Bank Of Music Information

МУЗЫКАЛЬНО-ИНФОРМАЦИОННЫЙ БАНК

Поиск по сайту







    GGreen Day • Misery (аккорды и текст - chords & lyrics)


    430

    Print

    Видео «Misery (Green Day)»

    Видео клипы к песне подбираются автоматически сайтом youtube. Возможны некоторые несоответствия клипов песне.

    ↑ Спрятать рекламу ↑



    Download


    intro
    
    E|---------------------------------|
    B|-2-2-2-2-2-2-2-2-2-2-2-2-2-2-2-2-|
    G|-3-3-3-3-3-3-3-3-3-3-3-3-3-3-3-3-|
    D|-3-3-3-3-3-3-3-3-3-3-3-3-3-3-3-3-|
    A|-1-1-1-1-1-1-1-1-1-1-1-1-1-1-1-1-|
    E|---------------------------------|
    
    verse
    
    E|------------------------------------------------------------------------|
    B|-2--2--2--2--2--2--2--2--2--2--2--2--2--2--2--2--2--2--2--2-------------|
    G|-3--3--3--3--3--3--3--3--3--3--3--3--3--3--3--3--3--3--3--3--2--2--2--2-|
    D|-3--3--3--3--3--3--3--3--3--3--3--3--3--3--3--3--3--3--3--3--3--3--3--3-|
    A|-1--1--1--1--1--1--1--1--1--1--1--1--1--1--1--1--1--1--1--1--3--3--3--3-|
    E|-------------------------------------------------------------1--1--1--1-|
    
    E|---------------------------------------------|
    B|2--2--2--2--2:---1:---------------2--2--2--2-|
    G|3--3--3--3--3:---2:---2--2--2--2--3--3--3--3-|
    D|3--3--3--3--3:---3:---3--3--3--3--3--3--3--3-|
    A|1--1--1--1--1:---0:---3--3--3--3--1--1--1--1-|
    E|----------------------1--1--1--1-------------|
    
    chorus
    
    E|------------------------------------------------------------------------|
    B|-------------2--2--2--2--------------2--2--2--2--------------2--2--2--2-|
    G|-2--2--2--2--3--3--3--3--2--2--2--2--3--3--3--3--2--2--2--2--3--3--3--3-|
    D|-3--3--3--3--3--3--3--3--3--3--3--3--3--3--3--3--3--3--3--3--3--3--3--3-|
    A|-3--3--3--3--1--1--1--1--3--3--3--3--1--1--1--1--3--3--3--3--1--1--1--1-|
    E|-1--1--1--1--------------1--1--1--1--------------1--1--1--1-------------|
    
    E|------------------------|
    B|------------------------|
    G|2-2-2-2-2-2-2-2-2-2-2-2-|
    D|2-2-2-2-2-2-3-3-3-3-3-3-|
    A|2-2-2-2-2-2-3-3-3-3-3-3-|
    E|0-0-0-0-0-0-1-1-1-1-1-1-|
    
    bridge
    
    E|-------------------------------------------------------------------------|
    B|-----------------2--2--2--2------------------2--2--2--2------------------|
    G|-3-3-3-3-2-2-2-2-3--3--3--3--3-3-3-3-2-2-2-2-3--3--3--3--3-3-3-3-2-2-2-2-|
    D|-4-4-4-4-3-3-3-3-3--3--3--3--4-4-4-4-3-3-3-3-3--3--3--3--4-4-4-4-3-3-3-3-|
    A|-4-4-4-4-3-3-3-3-1--1--1--1--4-4-4-4-3-3-3-3-1--1--1--1--4-4-4-4-3-3-3-3-|
    E|-2-2-2-2-1-1-1-1-------------2-2-2-2-1-1-1-1-------------2-2-2-2-1-1-1-1-|
    
    E|--------------------------------------|
    B|2--2--2--2----------------------------|
    G|3--3--3--3--3-3-3-3-3-3-3-3-2-2-2-2-2-|
    D|3--3--3--3--4-4-4-4-4-4-4-4-3-3-3-3-3-|
    A|1--1--1--1--4-4-4-4-4-4-4-4-3-3-3-3-3-|
    E|------------2-2-2-2-2-2-2-2-1-1-1-1-1-|
    
    lyrics
    
    virginia was a lot lizard from f.l.a.
    she had a compound fracture in the "trunk"
    it started when she run away thumbs out out on the interstate
    she hitched a ride to misery
    mr. whirly had a catastrophic incident he fell into the city by the bay
    he liquidated his estate now he sleeps upon the haight
    panhanding misery
    he's gonna get high when he's low the fire burns from better days
    and she screems why oh why i said i don't know
    the catastrophic hymnes from yesterday of misery
    vinnie was a hustler out of amsterdam he ran the drug cartel in tinseltown
    they found him in a cadillac bludgeoned
    with a baseball bat in the name of misery
    gina hit the road to new york city
    mysteriously the night vinnie croaked
    she stopped in vegas to elope with virgina and the dope
    and kissed the bride eternally
    and they're gonna get high when they're low
    the fire burns from better days
    and he screems why oh why i said i don't know
    the catastrophic hymnes from yesterday of misery
    hell hounds on your trail now once again boy
    it's groping on your leg until it sleeps
    the emptiness will fill your soul with sorrow
    because it's not what you make it's what you leave
    and we're gonna get high when i'm low
    the fire burns from better days
    and she screems why oh why i said i don't know
    the catastrophic hymnes from yesterday
    

    Тональность:

    Нет текста!



    Назад
    Рекомендуем посмотреть другие песни исполнителя «Green Day»:

    • Комментарии Facebook ()
    • Комментарии ВКонтакте



    Добавить в Избранное Браузера
    Сохранить здесь Очистить


    x

    0


    +
    -

    +
    -

    -

    Авторизация





    Зарегистрироваться

    M

    Дата и время

    • 07:00:43
       

    Социальные ссылки


    Наши приложения

    • Muzbank App Play Market
    • Muzbank Amazon App