MUZBANK



A Most Complete Bank Of Music Information

МУЗЫКАЛЬНО-ИНФОРМАЦИОННЫЙ БАНК

Поиск по сайту







    GGreen Day • Platypus (аккорды и текст - chords & lyrics)


    181

    Print

    Видео «Platypus (Green Day)»

    Видео клипы к песне подбираются автоматически сайтом youtube. Возможны некоторые несоответствия клипов песне.

    ↑ Спрятать рекламу ↑



    Download



     
    
    
    PLATYPUS (I HATE YOU)
    Green Day
    Tabbed by KoRny Freak 
    
    intro
    |-----------------|
    |-----------------|
    |-----------------|
    |-9-9-9-9-9-9-5-4-|
    |-9-9-9-9-9-9-5-4-|
    |-7-7-7-7-7-7-3-2-|
    
    |---------------------------------------------------------------|
    |---------------------------------------------------------------|
    |-----------------9-9-9-9--------------------------9------------|
    |-9-9-9-9-7-7-7-7-9-9-9-9-9-9-9-9--9-9-9-9-7-7-7-7-9------4-5-7-|
    |-9-9-9-9-7-7-7-7-7-7-7-7-9-9-9-9--9-9-9-9-7-7-7-7-7------4-5-7-|
    |-7-7-7-7-5-5-5-5---------7-7-7-7--7-7-7-7-5-5-5-5--------2-3-5-|
    
    verse
    |---------------------------------|
    |---------------------------------|
    |-----------------9-9-9-9---------|
    |-9-9-9-9-7-7-7-7-9-9-9-9-9-9-9-9-|
    |-9-9-9-9-7-7-7-7-7-7-7-7-9-9-9-9-|
    |-7-7-7-7-5-5-5-5---------7-7-7-7-|
    
    chorus
    |-----------------------------------------------------------------
    |-----------------------------------------------------------------
    |-----------------------------------------9-9-9-------------------
    |-7-7-7-7-7-7-7-7-7-7-7-7-7-7-7-7-7-7-7-7-9-9-9-9-9-9-9-9-9-9-9-9-
    |-7-7-7-7-7-7-7-7-7-7-7-7-7-7-7-7-7-7-7-7-7-7-7-9-9-9-9-9-9-9-9-9-
    |-5-5-5-5-5-5-5-5-5-5-5-5-5-5-5-5-5-5-5-5-------7-7-7-7-7-7-7-7-7-
    
    -----------------------------------------------------------------
    -----------------------------------------------------------------
    -----------------------------------------------------------------
    -7-7-7-7-7-7-7-7-7-7-7-7-7-7-7-7-7-7-7-7-4-4-4-4-4-4-4-4-4-4-4-4-
    -7-7-7-7-7-7-7-7-7-7-7-7-7-7-7-7-7-7-7-7-4-4-4-4-4-4-4-4-4-4-4-4-
    -5-5-5-5-5-5-5-5-5-5-5-5-5-5-5-5-5-5-5-5-2-2-2-2-2-2-2-2-2-2-2-2-
    
    ---------------------------------------------|
    ---------------------------------------------|
    -9-9-9-------------9-9-9---------------------|
    -9-9-9-9-9-9-9-9-9-9-9-9-9-9-9-9-9-9-9-9-9-9-|
    -7-7-7-9-9-9-9-9-9-7-7-7-9-9-9-9-9-9-9-9-9-9-|
    -------7-7-7-7-7-7-------7-7-7-7-7-7-7-7-7-7-|
    
    if you have any questions or comments, email me at 
    silverchair_surfing_bird@hotmail.com
     

    Тональность:

    Нет текста!



    Назад
    Рекомендуем посмотреть другие песни исполнителя «Green Day»:

    • Комментарии Facebook ()
    • Комментарии ВКонтакте



    Добавить в Избранное Браузера
    Сохранить здесь Очистить


    x

    0


    +
    -

    +
    -

    -

    Авторизация





    Зарегистрироваться

    M

    Дата и время

    • 11:21:25
       

    Социальные ссылки


    Наши приложения

    • Muzbank App Play Market
    • Muzbank Amazon App