MUZBANK



A Most Complete Bank Of Music Information

МУЗЫКАЛЬНО-ИНФОРМАЦИОННЫЙ БАНК

Поиск по сайту







    GGreen Day • Poprock And Coke (аккорды и текст - chords & lyrics)


    229

    Print

    Видео «Poprock And Coke (Green Day)»

    Видео клипы к песне подбираются автоматически сайтом youtube. Возможны некоторые несоответствия клипов песне.

    ↑ Спрятать рекламу ↑



    Download


    INTRO:
    e------------------------------|
    B------------------------------|
    G-6-66-66-66-6-6-66-66-6-99----|
    D-7-77-77-77-7-7-77-77-7-99----|
    A-7-77-77-77-7-7-77-77-7-77----|
    E-5-55-55-55-5-5-55-55-5-------|
    
    VERSE:
    e------------------------------------------------------------------------------|
    B------------------------------------------------------------------------------|
    G6-66-66-66-66-7-77-77-77-77-6-66-66-66-66-9-99-99-99-99-7-77-77-77-77-6-66-6-6|
    D7-77-77-77-77-7-77-77-77-77-7-77-77-77-77-9-99-99-99-99-7-77-77-77-77-7-77-7-7|
    A7-77-77-77-77-5-55-55-55-55-7-77-77-77-77-7-77-77-77-77-5-55-55-55-55-7-77-7-7|
    E5-55-55-55-55---------------5-55-55-55-55-----------------------------5-55-5-5|
    
    CHORUS:
    e-----------------------------------------------|
    B-----------------------------------------------|
    G-6-0--------000-7-6-99-999-777-7-6-99-999-7----|
    D-7-2-44-444-222-7-7-99-999-777-7-7-99-999-7----|
    A-7-2-44-444-222-5-7-77-777-555-5-7-77-777-5----|
    E-5-0-22-222-000---5--------------5-------------|
    
    BRIDGE 1:
    E--5•5•5•5•5•5•5•5•5•5•5•5•5•5•5•5--|
    
    BRIDGE 2:
    e-------------------------------------------------------------------|
    B-------------------------------------------------------------------|
    G-7-77-77-77-7-6-66-66-66-6-9-99-99-99-9-7-77-77-77-7-6-66-66-66-66-|
    D-7-77-77-77-7-7-77-77-77-7-9-99-99-99-9-7-77-77-77-7-7-77-77-77-77-|
    A-5-55-55-55-5-7-77-77-77-7-7-77-77-77-7-5-55-55-55-5-7-77-77-77-77-|
    E--------------5-55-55-55-5---------------------------5-55-55-55-55-|
    
    SOLO:
    e------------------------------------------------------------------------------|
    B------------------------------------------------------------------------------|
    G------------------------------7-77-77-76--------------------------------------|
    D-7-----------------7-77-77-77------------7-77-77-77----------------7-77-77-77-|
    A---7-9-99-99-9-9s7----------------------------------9-99-99-99-9s7------------|
    E------------------------------------------------------------------------------|
    
    e-----------------------------------|
    B-------------------------10-9------|
    G-777777777-66677-999-9-9-----------|
    D------------------------------7----|
    A-----------------------------------| S=slide
    E-----------------------------------|
    
    OUTRO
    e------------------| Play this 3x.        e----|
    B------------------| Last time ends with: B----|
    G-6-66-66-66-99----|                      G—6--|
    D-7-77-77-77-99----|                      D—7--|
    A-7-77-77-77-77----|                      A—7--|
    E-5-55-55-55-------|                      E—5--|
    
    
    HERE IS THE ORDER:
    1. Intro
    2. Verse (2x)
    3. Chorus
    4. Intro
    5. Bridge 1
    6. Bridge 2
    7. Chorus
    8. Intro
    9. Solo
    10.Bridge 2
    11.Chorus
    12.Outro
    

    Тональность:

    Нет текста!



    Назад
    Рекомендуем посмотреть другие песни исполнителя «Green Day»:

    • Комментарии Facebook ()
    • Комментарии ВКонтакте



    Добавить в Избранное Браузера
    Сохранить здесь Очистить


    x

    0


    +
    -

    +
    -

    -

    Авторизация





    Зарегистрироваться

    M

    Дата и время

    • 07:08:48
       

    Социальные ссылки


    Наши приложения

    • Muzbank App Play Market
    • Muzbank Amazon App