MUZBANK



A Most Complete Bank Of Music Information

МУЗЫКАЛЬНО-ИНФОРМАЦИОННЫЙ БАНК

Поиск по сайту







    GGreen Day • Road To Acceptance (аккорды и текст - chords & lyrics)


    214

    Print

    Видео «Road To Acceptance (Green Day)»

    Видео клипы к песне подбираются автоматически сайтом youtube. Возможны некоторые несоответствия клипов песне.

    ↑ Спрятать рекламу ↑



    Download


    Intro
    E|-----------------|-------------------|
    B|-7-7-7-8-8-8-8-8-|10-10-10-8-8-8-8-8-|
    G|-7-7-7-7-7-7-7-7-|-7--7--7-7-7-7-7-7-|
    D|-----------------|-------------------|
    A|-----------------|-------------------|
    E|-----------------|-------------------|
    
    E|-----------------|------------------------|
    B|-7-7-7-8-8-8-8-8-|10-10-10-10-10-10-10-10-|
    G|-7-7-7-7-7-7-7-7-|-7--7--7--7--7--7--7--7-|
    D|-----------------|------------------------|
    A|-----------------|------------------------|
    E|-----------------|------------------------|
    
    E|------------------------|------------------------|
    B|10-10-10-10-10-10-10-10-|10-10-10-10-10-10-10-10-|
    G|-7--7--7--7--7--7--7--7-|-7--7--7--7--7--7--7--7-|
    D|------------------------|------------------------|
    A|------------------------|------------------------|
    E|------------------------|------------------------|
    
    Verse 1
    E|-------------------|------------------|
    B|-------------------|------------------|
    G|---0-------0-------|---0-------0------|
    D|-4-----5-----5-----|-7-----5-----5----|
    A|-5-----5-----5--0--|-5-----5-----5--0-|
    E|-------------------|------------------|
    
    E|------------------------|-----------------|-----------------|
    B|------------------------|-----------------|-----------------|
    G|------0---------0-------|-7-7-7-7-7-7-7-7-|-7-7-7-7-7-7-7---|
    D|---4-------5-------5----|-7-7-7-7-7-7-7-7-|-7-7-7-7-7-7-7---|
    A|---5-------5-------5----|-5-5-5-5-5-5-5-5-|-5-5-5-5-5-5-5-0-|
    E|------------------------|-----------------|-----------------|
    
    Bridge
    B5 A5
    E|--------------|-----------------|-----------------|-----------------|
    B|--------------|-----------------|-----------------|-----------------|
    G|-4--4--4-4--4-|-4-4-4-4-4-4-4-4-|-2-2-2-2-2-2-2-2-|-2-2-2-2-2-2-2-2-|
    D|-4--4--4-4--4-|-4-4-4-4-4-4-4-4-|-2-2-2-2-2-2-2-2-|-2-2-2-2-2-2-2-2-|
    A|-2--2--2-2--2-|-2-2-2-2-2-2-2-2-|-0-0-0-0-0-0-0-0-|-0-0-0-0-0-0-0-0-|
    E|--------------|-----------------|-----------------|-----------------|
    feel for______got______ten Feel like rot_____ting
    F#5 D5 A5 F#5 D5 A5
    E|----------------|-----------------|----------------|-----------------|
    B|----------------|-----------------|----------------|-----------------|
    G|-------7--7-7---|-----------------|-------7--7-7---|-----------------|
    D|-4--4--7--7-7-7-|-7-7--7--7-7-7-7-|-4--4--7--7-7-7-|-7-7--7--7-7-7-7-|
    A|-4--4--5--5-5-7-|-7-7--7--7-7-7-7-|-4--4--5--5-5-7-|-7-7--7--7-7-7-7-|
    E|-2--2---------5-|-5-5--5--5-5-5-5-|-2--2---------5-|-5-5--5--5-5-5-5-|
    Do you feel the same? Do you feel the same?
    B5 A5
    E|--------------|-----------------|-----------------|-----------------|
    B|--------------|-----------------|-----------------|-----------------|
    G|-4--4--4-4--4-|-4-4-4-4-4-4-4-4-|-2-2-2-2-2-2-2-2-|-2-2-2-2-2-2-2-2-|
    D|-4--4--4-4--4-|-4-4-4-4-4-4-4-4-|-2-2-2-2-2-2-2-2-|-2-2-2-2-2-2-2-2-|
    A|-2--2--2-2--2-|-2-2-2-2-2-2-2-2-|-0-0-0-0-0-0-0-0-|-0-0-0-0-0-0-0-0-|
    E|--------------|-----------------|-----------------|-----------------|
    Ad_____o____les_____cence Just can't make sense
    F#5 D5 A5 F#5 D5 A5
    E|----------------|-----------------|----------------|-----------------|
    B|----------------|-----------------|----------------|-----------------|
    G|-------7--7-7---|-----------------|-------7--7-7---|-----------------|
    D|-4--4--7--7-7-7-|-7-7--7--7-7-7-7-|-4--4--7--7-7-7-|-7-7--7--7-7-7-7-|
    A|-4--4--5--5-5-7-|-7-7--7--7-7-7-7-|-4--4--5--5-5-7-|-7-7--7--7-7-7-7-|
    E|-2--2---------5-|-5-5--5--5-5-5-5-|-2--2---------5-|-5-5--5--5-5-5-5-|
    It's calling my name It's calling my name
    
    Pre-Chorus
    D5 C5
    E|--------------|----------------|--------------|----------------|
    B|--------------|----------------|--------------|----------------|
    G|-7--7--7-7--7-|-7-7-7-7-7-7--7-|-5--5--5-5--5-|-5-5-5-5-5-5--5-|
    D|-7--7--7-7--7-|-7-7-7-7-7-7--7-|-5--5--5-5--5-|-5-5-5-5-5-5--5-|
    A|-5--5--5-5--5-|-5-5-5-5-5-5--5-|-3--3--3-3--3-|-3-3-3-3-3-3--3-|
    E|--------------|----------------|--------------|----------------|
    I take a look around And all the things I've found
    G5 D5
    E|--------------|----------------|---------------|----------------|
    B|--------------|----------------|---------------|----------------|
    G|--------------|----------------|-7--7--7-7-7-7-|-7-7-7-7-7-7--7-|
    D|-5--5--5-5--5-|-5-5-5-5-5-5--5-|-7--7--7-7-7-7-|-7-7-7-7-7-7--7-|
    A|-5--5--5-5--5-|-5-5-5-5-5-5--5-|-5--5--5-5-5-5-|-5-5-5-5-5-5--5-|
    E|-3--3--3-3--3-|-3-3-3-3-3-3--3-|---------------|----------------|
    I call it blind hatred
    D5 C5
    E|--------------|----------------|--------------|----------------|
    B|--------------|----------------|--------------|----------------|
    G|-7--7--7-7--7-|-7-7-7-7-7-7--7-|-5--5--5-5--5-|-5-5-5-5-5-5--5-|
    D|-7--7--7-7--7-|-7-7-7-7-7-7--7-|-5--5--5-5--5-|-5-5-5-5-5-5--5-|
    A|-5--5--5-5--5-|-5-5-5-5-5-5--5-|-3--3--3-3--3-|-3-3-3-3-3-3--3-|
    E|--------------|----------------|--------------|----------------|
    If you'd stop a while And maybe if you'd smile
    G5 D5
    E|--------------|----------------|----------------|-----------------|
    B|--------------|----------------|----------------|-----------------|
    G|--------------|----------------|-7--7-7-5-5-5-5-|-7-7--7--7-7-7-7-|
    D|-5--5--5-5--5-|-5-5-5-5-5-5--5-|-7--7-7-5-5-5-5-|-7-7--7--7-7-7-7-|
    A|-5--5--5-5--5-|-5-5-5-5-5-5--5-|-5--5-5-3-3-3-3-|-5-5--5--5-5-5-5-|
    E|-3--3--3-3--3-|-3-3-3-3-3-3--3-|----------------|-----------------|
    You would realize that We're all the same It's
    
    Chorus
    C5 G5 C5 G5
    E|----------------|-----------------|----------------|-----------------|
    B|----------------|-----------------|----------------|-----------------|
    G|-5--5-5-5-5-5---|-----------------|-5--5-5-5-5-5---|-----------------|
    D|-5--5-5-5-5-5-5-|-5-5--5--5-5-5-5-|-5--5-5-5-5-5-5-|-5-5--5--5-5-5-5-|
    A|-3--3-3-3-3-3-5-|-5-5--5--5-5-5-5-|-3--3-3-3-3-3-5-|-5-5--5--5-5-5-5-|
    E|--------------3-|-3-3--3--3-3-3-3-|--------------3-|-3-3--3--3-3-3-3-|
    just like our brain When it goes insane We
    C5 G5 *last time go to outro
    E|----------------|-------------|
    B|----------------|-------------|
    G|-5--5-5-5-5-5---|-------------|
    D|-5--5-5-5-5-5-5-|- - - - - - -|
    A|-3--3-3-3-3-3-5-|- - - - - - -|
    E|--------------3-|- - - - - - -|
    feel the same pain
    
    Interlude (chords implied by bass)
    E|-------|-------|-------|-------|-------|-------|-------|-----|
    B|-------|-------|-------|-------|-------|-------|-------|-----|
    G|-------|-------|-------|-------|-------|-------|-------|-----|
    D|-4-----|-------|-------|-------|-------|-------|-------|-----|
    A|-5-----|-(5)---|-(5)---|-(5)---|-(5)---|-(5)---|-(5)---|-(5)-|
    E|-------|-------|-------|-------|-------|-------|-------|-----|
    
    E|-14----|-(14)--|-(14)--|-(14)--|-(14)--|-(14)--|-(14)--|-(14)-|
    B|-------|-------|-------|-------|-------|-------|-------|------|
    G|-------|-------|-------|-------|-------|-------|-------|------|
    D|-------|-------|-------|-------|-------|-------|-------|------|
    A|-(5)---|-(5)---|-(5)---|-(5)---|-(5)---|-(5)---|-(5)---|-(5)--|
    E|-------|-------|-------|-------|-------|-------|-------|------|
    
    Pre-Chorus (bass only)
    D C
    I take a look around
    C G
    And all the things I've found
    G D
    I call it blind hatred
    D C
    If you'd stop a while
    C G
    And maybe if you'd smile
    G D5
    E|-------------|-------------------|----------------|----------------|
    B|-------------|-------------------|----------------|----------------|
    G|-------------|----pick slide-----|-7--7-7⁄5-5-5-5-|-7-7-7--7-7-7-7-|
    D|-------------|-------------------|-7--7-7⁄5-5-5-5-|-7-7-7--7-7-7-7-|
    A|-(5)---------|-x⁄x⁄x⁄x⁄x⁄x⁄x⁄x⁄x-|-5--5-5⁄3-3-3-3-|-5-5-5--5-5-5-5-|
    E|-------------|-x⁄x⁄x⁄x⁄x⁄x⁄x⁄x⁄x-|----------------|----------------|
    You would realize that We're all the same It's (to chorus)
    Outro (from chorus)
    G5 C5 B5 G5 A C5 B5 G5 A C5 B5 G5
    E|-----------------|--------------|--------------|------------|
    B|-----------------|--------------|--------------|------------|
    G|-----------------|-5-5-5-4----2-|-5-5-5-4----2-|-5-5-5-4----|
    D|-5-5--5--5-5-5-5-|-5-5-5-4--5-2-|-5-5-5-4--5-2-|-5-5-5-4--5-|
    A|-5-5--5--5-5-5-5-|-3-3-3-2--5-0-|-3-3-3-2--5-0-|-3-3-3-2--5-|
    E|-3-3--3--3-3-3-3-|----------3---|----------3---|----------3-|
    
    E|--------------|--------------|---|
    B|--------------|--------------|-3-|
    G|--------------|--------------|-2-|
    D|--------------|--------------|-0-|
    A|--------------|--------------|---|
    E|--------------|--------------|---|
    delay effect(next 2 bars)
    
    STRUCTURE
    intro
    verse 1
    bridge
    pre-chorus
    chorus
    verse
    verse 2
    bridge
    pre-chorus
    chorus
    interlude
    pre-chorus (bass only)
    chorus
    outro
    
    LYRICS
    
    verse 1
    I always waste my time just wondering
    What the next man thinks of me
    I'll never do exactly what I want
    And I'll sculpt my life for your acceptance
    
    verse1
    I always waste my time just wondering
    What the next man thinks of me
    I'll never do exactly what I want
    And I'll sculpt my life for your acceptance
    
    bridge
    And I feel forgotten
    Feel like rotting
    (Do you feel the same?)
    (Do you feel the same?)
    Adolescence
    Just can't make sense
    (It's calling my name)
    (It's calling my name)
    
    pre-chorus
    I take a look around
    And all the things I've found
    I call it blind hatred
    If you'd stop a while
    And maybe if you'd smile
    You would realize that
    We're all the same
    
    chorus
    It's just like our brain
    When it goes insane
    We feel the same pain
    
    verse 2
    All my life I've seemed to have this need
    I think at times it even turns to greed
    We all want to join some family
    We'll even sacrifice a moral changing
    
    And I feel forgotten
    Feel like rotting
    (Do you feel the same?)
    (Do you feel the same?)
    Adolescence
    Just can't make sense
    (It's calling my name)
    (It's calling my name)
    
    I take a look around
    And all the things I've found
    I call it blind hatred
    If you'd stop a while
    And maybe if you'd smile
    You would realize that
    We're all the same
    
    It's just like our brain
    When it goes insane
    We feel the same pain
    
    I take a look around
    And all the things I've found
    I call it blind hatred
    If you'd stop a while
    And maybe if you'd smile
    You would realize that
    We're all the same
    
    It's just like our brain
    When it goes insane
    We feel the same pain
    

    Тональность:

    Нет текста!



    Назад
    Рекомендуем посмотреть другие песни исполнителя «Green Day»:

    • Комментарии Facebook ()
    • Комментарии ВКонтакте



    Добавить в Избранное Браузера
    Сохранить здесь Очистить


    x

    0


    +
    -

    +
    -

    -

    Авторизация





    Зарегистрироваться

    M

    Дата и время

    • 13:53:56
       

    Социальные ссылки


    Наши приложения

    • Muzbank App Play Market
    • Muzbank Amazon App