MUZBANK



A Most Complete Bank Of Music Information

МУЗЫКАЛЬНО-ИНФОРМАЦИОННЫЙ БАНК

Поиск по сайту







    GGreen Day • Scattered (аккорды и текст - chords & lyrics)


    313

    Print

    Видео «Scattered (Green Day)»

    Видео клипы к песне подбираются автоматически сайтом youtube. Возможны некоторые несоответствия клипов песне.

    ↑ Спрятать рекламу ↑



    Download



    Intro
    e|-2-|
    B|-0-|
    G|-4-|
    D|-4-|Gradually increase volume
    A|---|
    E|-2-|
    
    
    Bridge
    e|-----------------|-----------------|
    B|-----------------|-----------------|
    G|-4---4---4-4-4---|-----------------|
    D|-4---4---4-4-4-7-|---6-2---2-2-2-2-|
    A|-2---2---2-2-2-7-|---6-2---2-2-2-2-|
    E|---------------5-|---4-0---0-0-0-0-|
    
    
    Fill 1
    e|-----------------|-----------------|
    B|-----------------|-----------------|
    G|-4---4---4-4-4-0-|-4-4-4-4-4-4-4-4-|
    D|-4---4---4-4-4-0-|-4-4-4-4-4-4-4-4-|
    A|-2---2---2-2-2-0-|-2-2-2-2-2-2-2-2-|
    E|---------------0-|-----------------|
    
    
    Verse A
    e|-----------------|-----------------|-----------------|-----------------|
    B|-----------------|-----------------|-----------------|-----------------|
    G|-----------------|-----------------|-----------------|-----------------|
    D|-2---2-2---2-2-2-|---2-2---2-2-2-2-|-6---6-6---6-6-6-|---6-6---6-6-6-6-|
    A|-2---2-2---2-2-2-|---2-2---2-2-2-2-|-6---6-6---6-6-6-|---6-6---6-6-6-6-|
    E|-0---0-0---0-0-0-|---0-0---0-0-0-0-|-4---4-4---4-4-4-|---4-4---4-4-4-4-|
    
    e|-----------------|-----------------|-----------------|-----------------|
    B|-2---2-2---2-2-2-|---2-2---2-2-2-2-|-4---4-4---4-4-4-|---4-4---4-4-4-4-|
    G|-2---2-2---2-2-2-|---2-2---2-2-2-2-|-4---4-4---4-4-4-|---4-4---4-4-4-4-|
    D|-2---2-2---2-2-2-|---2-2---2-2-2-2-|-4---4-4---4-4-4-|---4-4---4-4-4-4-|
    A|-0---0-0---0-0-0-|---0-0---0-0-0-0-|-2---2-2---2-2-2-|---2-2---2-2-2-2-|
    E|-----------------|-----------------|-----------------|-----------------|
    
    
    Chorus A
    e|-----------------|-----------------|-----------------|-----------------|
    B|*5---5---5-5-5---|-----------------|-----------------|-----------------|
    G|-6---6---6-6-6-9-|---9-9-9---9-9-9-|-----------------|-----------------|
    D|-6---6---6-6-6-9-|---9-9-9---9-9-9-|-9---9---9-9---7-|---7-7-7---7-7---|
    A|*4---4---4-4-4-7-|---7-7-7---7-7-7-|-9---9---9-9---7-|---7-7-7---7-7-0-|
    E|-----------------|-----------------|-7---7---7-7---5-|---5-5-5---5-5-0-|
    ____________________________________
    1. |
    e|-----------------|-----------------|-----------------|-----------------|
    B|-----------------|-----------------|-----------------|----------------*|
    G|-----------------|-----------------|-9---x-9-9---x-9-|-x-9---9-9-9-9---|
    D|-4---4-4-4-4-6-7-|---7-7-7---7-7-7-|-9---x-9-9---x-9-|-x-9---9-9-9-9---|
    A|-4---4-4-4-4-6-7-|---7-7-7---7-7-7-|-7---x-7-7---x-7-|-x-7---7-7-7-7--*|
    E|-2---2-2-2-2-4-5-|---5-5-5---5-5-5-|-----x-------x---|-x---------------|
    ____________________________________
    2.
    e|-----------------|-----------------|
    B|-----------------|-----------------|
    G|-----------------|-----------------|
    D|-2-2-2-2-2-2-2-2-|-2-2-2-2-2-2-2-2-|
    A|-2-2-2-2-2-2-2-2-|-2-2-2-2-2-2-2-2-|
    E|-0-0-0-0-0-0-0-0-|-0-0-0-0-0-0-0-0-|
    
    
    Chorus B
    e|-----------------|-----------------|-----------------|-----------------|
    B|*5---5---5-5-5---|-----------------|-----------------|-----------------|
    G|-6---6---6-6-6-9-|---9-9-9---9-9-9-|-----------------|-----------------|
    D|-6---6---6-6-6-9-|---9-9-9---9-9-9-|-9---9---9-9---7-|---7-7-7---7-7---|
    A|*4---4---4-4-4-7-|---7-7-7---7-7-7-|-9---9---9-9---7-|---7-7-7---7-7-0-|
    E|-----------------|-----------------|-7---7---7-7---5-|---5-5-5---5-5-0-|
    ____________________________________
    1. |
    e|-----------------|-----------------|-----------------|-----------------|
    B|-----------------|-----------------|-----------------|----------------*|
    G|-----------------|-----------------|-9---x-9-9---x-9-|-x-9---9-9-9-9---|
    D|-4---4-4-4-4-6-7-|---7-7-7---7-7-7-|-9---x-9-9---x-9-|-x-9---9-9-9-9---|
    A|-4---4-4-4-4-6-7-|---7-7-7---7-7-7-|-7---x-7-7---x-7-|-x-7---7-7-7-7--*|
    E|-2---2-2-2-2-4-5-|---5-5-5---5-5-5-|-----x-------x---|-x---------------|
    ____________________________________
    2.
    e|-----------------|-----------------|
    B|-----------------|-------------2---|
    G|-----------------|-.-----------2---|
    D|-2-2-2-2-2-2-2-2-|-2-----------2---|
    A|-2-2-2-2-2-2-2-2-|-2-----------0---|
    E|-0-0-0-0-0-0-0-0-|-0-----------0---|
    
    
    Fill 2
    e|---|
    B|---|
    G|---|
    D|-2-|
    A|-2-|Hold for 12 measures with some feedback Starting in the 4th measure
    E|-0-|
    
    
    Verse B
    e|-----------------|-----------------|-----------------|-----------------|
    B|-----------------|-4-4-4-4-4-4-4-4-|---4---4---4-4-4-|-----------------|
    G|-------------2---|-4-4-4-4-4-4-4-4-|---4---4---4-4-4-|-----------------|
    D|(2)----------2---|-4-4-4-4-4-4-4-4-|---4---4---4-4-4-|-2---2-2---2---2-|
    A|(2)----------0---|-2-2-2-2-2-2-2-2-|---2---2---2-2-2-|-2---2-2---2---2-|
    E|(0)----------0---|-----------------|-----------------|-0---0-0---0---0-|
    
    e|-----------------|-----------------|-----------------|-----------------|
    B|-----------------|-----------------|-----------------|-2---2-2---2---2-|
    G|-----------------|-----------------|-----------------|-2---2-2---2---2-|
    D|---2-2---2-2-2---|-6---6-6---6---6-|---6-6---6-6-6---|-2---2-2---2---2-|
    A|---2-2---2-2-2---|-6---6-6---6---6-|---6-6---6-6-6---|-0---0-0---0---0-|
    E|---0-0---0-0-0---|-4---4-4---4---4-|---4-4---4-4-4---|-----------------|
    
    e|-----------------|-----------------|-----------------|
    B|---2-2---2-2-2---|-4---4-4-4-4-4-4-|---4---4---4-4-4-|
    G|---2-2---2-2-2---|-4---4-4-4-4-4-4-|---4---4---4-4-4-|
    D|---2-2---2-2-2---|-4---4-4-4-4-4-4-|---4---4---4-4-4-|
    A|---0-0---0-0-0---|-2---2-2-2-2-2-2-|---2---2---2-2-2-|
    E|-----------------|-----------------|-----------------|
    
    
    Outro
    e|-----0-----------|-----------------|-----------------|-----------------|
    B|-----0---------5-|---5-5-5-5-5-5---|-----------------|-----------------|
    G|-----1-----4---6-|---6-6-6-6-6-6---|-----------------|-----------------|
    D|-2---2-2-2-4---6-|---6-6-6-6-6-6-0-|-4---4-4-4-4-0-7-|---7-7-7---7-7-7-|
    A|-2---2-2-2-2---4-|---4-4-4-4-4-4-0-|-4---4-4-4-4-0-7-|---7-7-7---7-7-7-|
    E|-0---0-0-0-------|---------------0-|-2---2-2-2-2-0-5-|---5-5-5---5-5-5-|
    
    e|-----------------|-0-|
    B|-----------------|-0-|
    G|-----------------|-1-|
    D|-2-2-2-2-2-2-2-2-|-2-|Let Ring
    A|-2-2-2-2-2-2-2-2-|-2-|
    E|-0-0-0-0-0-0-0-0-|-0-|
    
    
    Song Order:
    
    Intro
    Bridge 3x
    Fill 1
    Verse A 2x
    Chorus A
    Verse A 2X
    Chorus B
    Bridge 5X
    Fill 1
    Fill 2
    Verse B
    Chorus A (with Outro as 2nd ending)
    

    Тональность:

    Нет текста!



    Назад
    Рекомендуем посмотреть другие песни исполнителя «Green Day»:

    • Комментарии Facebook ()
    • Комментарии ВКонтакте



    Добавить в Избранное Браузера
    Сохранить здесь Очистить


    x

    0


    +
    -

    +
    -

    -

    Авторизация





    Зарегистрироваться

    M

    Дата и время

    • 05:05:47
       

    Социальные ссылки


    Наши приложения

    • Muzbank App Play Market
    • Muzbank Amazon App