MUZBANK



A Most Complete Bank Of Music Information

МУЗЫКАЛЬНО-ИНФОРМАЦИОННЫЙ БАНК

Поиск по сайту







    GGreen Day • When I Come Around (аккорды и текст - chords & lyrics)


    396

    Print

    Видео «When I Come Around (Green Day)»

    Видео клипы к песне подбираются автоматически сайтом youtube. Возможны некоторые несоответствия клипов песне.

    ↑ Спрятать рекламу ↑



    Download


    Verse
       G5   D5   E5   C5  (x8)
    E|------------------|
    B|------------------|
    G|------7----9----5-|
    D|-5----7----9----5-|
    A|-5----5----7----3-|
    E|-3----------------|
    
    Chorus
       A5   C5   (x2)
    E|--------|
    B|--------|
    G|------5-|
    D|-7----5-|
    A|-7----3-|
    E|-5------|
    
    Bridge
                 (played over verse chords)
    E|-----------3-------5-------3-----5--0-0-0-0-0-5--0-0-0-------|
    B|-------------3---3---3---3---3------0-----0------------5b-2b-|
    G|-(verse x2)----0-------0-------0-----------------------------|
    D|-------------------------------------------------------------|
    A|-------------------------------------------------------------|
    E|-------------------------------------------------------------|
    
    Order
    
    Intro (verse chords palm muted x2, 1 guitar)
    Verse 1
    Chorus
    Verse 2
    Chorus
    Bridge
    Chorus
    End on verse chords x4 ("When I come around)
    
    Lyrics
    
    I heard you cry it loud
    All the way across town
    You?ve been searchin
    For that someone
    And it?s me out of the crowd
    As you sit around
    Feeling sorry for yourself
    					(Verse 1)
    So don?t get lonely now
    And dry your whinin eyes
    I?m just roamin for the moment
    Sleazin my backyard so don?t get
    So uptight you?ve been thinkin
    About ditchin me
    
    No time to search the world around
    Cuz you know where I?ll be found        (Chorus)
    When I come around
    
    I heard it all before
    So don?t knock down my door
    I?m a loser, and a user
    So I don?t need no accuser
    To try and slag me down
    Because I know you?re right
    					(Verse 2)
    So go do what you like
    Make sure you do it wise
    You may find out that your self-doubt
    Means nothing was ever there
    You can?t go forcing something
    If it?s just not right
    
    (Chorus)
    (Bridge)
    (Chorus)
    

    Тональность:

    Нет текста!



    Назад
    Рекомендуем посмотреть другие песни исполнителя «Green Day»:

    • Комментарии Facebook ()
    • Комментарии ВКонтакте



    Добавить в Избранное Браузера
    Сохранить здесь Очистить


    x

    0


    +
    -

    +
    -

    -

    Авторизация





    Зарегистрироваться

    M

    Дата и время

    • 11:59:57
       

    Социальные ссылки


    Наши приложения

    • Muzbank App Play Market
    • Muzbank Amazon App