MUZBANK



A Most Complete Bank Of Music Information

МУЗЫКАЛЬНО-ИНФОРМАЦИОННЫЙ БАНК

Поиск по сайту







    GGreen Jelly • Maximum Carnage (аккорды и текст - chords & lyrics)


    315

    Print

    Видео «Maximum Carnage (Green Jelly)»

    Видео клипы к песне подбираются автоматически сайтом youtube. Возможны некоторые несоответствия клипов песне.

    ↑ Спрятать рекламу ↑



    Download


     
    
    
    Green Jelly - Maximum Carnage 
    Tabbed By: Savages_84
    Intro
    G-----------------
    D-----------------
    A-----------------
    E-2-1-03-2-00-5---
    
    G-------------------
    D-------------------
    A-------------------
    E-2-1-03-2-0-4h2-2--
    Verse
    G-------------------------------
    D-------------------------------
    A-------------------------------
    E-xhx-1-xhx-1-xhx-1-xhx-1-xhx-2-
    Chorus
    F1
    G-----------------
    D-----------------
    A-----------------
    E-2-1-03-2-00-5---
    F2
    G-------------------
    D-------------------
    A-------------------
    E-2-1-03-2-4h2-2----
    Bridge
    P1
    G-----------------------
    D-----------------------
    A-----------------------
    E-3-5-2-0000-111111-2---
    P2
    G-------------------
    D-------------------
    A-------------------
    E-00-1-00-1-00-1----
    
    Order:                                                                                      
    Intro x1
    Verse x8
    Bridge P1 x1
    Chorus x2 (F1, F2, F1, F2)
    Bridge P2 x2
    Verse x8
    Bridge P1 x1
    Chorus x2
    Bridge P2 x1
    Verse x8
    Bridge P1 x1
    Chorus x2
    Bridge P2 x5
    Chorus x1 
    
    Key:
    h=hammer on
    x=palm mute
    Note: This is not surely Green Jelly. I am positive beyond belief. This is the
    tab to the famous game for Sega Genesis, Maximum Carnage.
     

    Тональность:

    Нет текста!



    Назад
    Рекомендуем посмотреть другие песни исполнителя «Green Jelly»:

    • Комментарии Facebook ()
    • Комментарии ВКонтакте



    Добавить в Избранное Браузера
    Сохранить здесь Очистить


    x

    0


    +
    -

    +
    -

    -

    Авторизация





    Зарегистрироваться

    M

    Дата и время

    • 11:13:49
       

    Социальные ссылки


    Наши приложения

    • Muzbank App Play Market
    • Muzbank Amazon App