MUZBANK



A Most Complete Bank Of Music Information

МУЗЫКАЛЬНО-ИНФОРМАЦИОННЫЙ БАНК

Поиск по сайту







    GGreen Jelly • Three Little Pigs (аккорды и текст - chords & lyrics)


    276

    Print

    Видео «Three Little Pigs (Green Jelly)»

    Видео клипы к песне подбираются автоматически сайтом youtube. Возможны некоторые несоответствия клипов песне.

    ↑ Спрятать рекламу ↑



    Download



     
    
    
    Overdriven guitar
    * = Reapeat
    
                                                          10x                    
    E||---12h15h12h15h12h15h12h15------------------------------------------||-------
    B||-------------------------------------------12h15h12h15h12h15h12h15--||-------
    G||*------------------------------------------------------------------*||-------
    D||*------------------------------------------------------------------*||-------
    A||--------------------------------------------------------------------||--9/---
    E||--------------------------------------------------------------------||--7/---
    
    
                                                                    
    -------------------|--------------------||------------------------|
    -------------------|--------------------||------------------------|
    -------------------|--------------------||*------------5----------|
    -------------------|--------------------||*--4----7----5----------|
    --8/---------------|--4-----------------||---4----7---------------|
    --6/---------------|--2-----------------||------------------------|
    
    
                        12x                                         
    -------------------------||------------------|---------------------|
    -------------------------||------------------|---------------------|
    --5--6--5------5--------*||------------------|-------------5-------|
    --5--6--5--7---5--------*||------------------|--4----7-----5-------|
    -----------7-------------||------------------|--4----7-------------|
    -------------------------||------------------|---------------------|
    
    
                                                 F#5                      
    -----------------------|------------------|--------------------------|
    -----------------------|------------------|--------------------------|
    --5--6--5-----5--------|------------------|--------------------------|
    --5--6--5--7--5--------|------------------|--------------------------|
    -----------7-----------|------------------|--4--4--4--4--4--4--4--4--|
    -----------------------|------------------|--2--2--2--2--2--2--2--2--|
    
    
                                             G5                       
    --------------------------------|--------------------------|
    --------------------------------|--------------------------|
    --------------------------------|--------------------------|
    --------------------------------|--------------------------|
    --4--4--4--4--4--4--4--4--------|--5--5--5--5--5--5--5--5--|
    --2--2--2--2--2--2--2--2--------|--3--3--3--3--3--3--3--3--|
    
    
                                       G#5                      
    --------------------------|--------------------------|
    --------------------------|--------------------------|
    --------------------------|--------------------------|
    --------------------------|--------------------------|
    --5--5--5--5--5--5--5--5--|--6--6--6--6--6--6--6--6--|
    --3--3--3--3--3--3--3--3--|--4--4--4--4--4--4--4--4--|
    
    
      G#5                                                                         
    --------------------------|--------------------------|-----------------------|
    --------------------------|--------------------------|-----------------------|
    --------------------------|--------------------------|-----------------------|
    --------------------------|--------------------------|-----------------------|
    --6--6--6--6--6--6--6--6--|--7--7--7--7--8--8--8--8--|--9----10----11--------|
    --4--4--4--4--4--4--4--4--|--5--5--5--5--6--6--6--6--|--7----8-----9---------|
    
    
                                                                        
    ------------------------|--------------------------|----------------------|
    ------------------------|--------------------------|----------------------|
    --------------5---------|--5--6--5-----5-----------|------------5---------|
    --4----7------5---------|--5--6--5--7--5-----------|--4----7----5---------|
    --4----7----------------|-------------7------------|--4----7--------------|
    ------------------------|--------------------------|----------------------|
    
    
                                                12x
    -------------------------||-----------------------|--------------------||
    -------------------------||-----------------------|--------------------||
    --5--6--5------6h---5~---||*-----------5----------|--5--6--5-----5----*||
    --5--6--5--7---6h---5~---||*--4----7---5----------|--5--6--5--7--5----*||
    -----------7-------------||---4----7--------------|----------7---------||
    -------------------------||-----------------------|--------------------||
    
    
      F#5                                                 
    --------------------------|--------------------------|
    --------------------------|--------------------------|
    --------------------------|--------------------------|
    --------------------------|--------------------------|
    --4--4--4--4--4--4--4--4--|--4--4--4--4--4--4--4--4--|
    --2--2--2--2--2--2--2--2--|--2--2--2--2--2--2--2--2--|
    
    
      G5                                                  
    --------------------------|--------------------------|
    --------------------------|--------------------------|
    --------------------------|--------------------------|
    --------------------------|--------------------------|
    --5--5--5--5--5--5--5--5--|--5--5--5--5--5--5--5--5--|
    --3--3--3--3--3--3--3--3--|--3--3--3--3--3--3--3--3--|
    
    
      G#5                        G#5                      
    --------------------------|--------------------------|
    --------------------------|--------------------------|
    --------------------------|--------------------------|
    --------------------------|--------------------------|
    --6--6--6--6--6--6--6--6--|--6--6--6--6--6--6--6--6--|
    --4--4--4--4--4--4--4--4--|--4--4--4--4--4--4--4--4--|
    
    
                                                                                  
    --------------------------|----------------------------------||-----------------|
    --------------------------|----------------------------------||-----------------|
    --------------------------|----------------------------------||*-------------13-|
    --------------------------|----------------------------------||*--12----15---13-|
    --7--7--7--7--8--8--8--8--|--9----10----11-------------------||---12----15------|
    --5--5--5--5--6--6--6--6--|--7----8------9-------------------||-----------------|
    
    
                                                        12x
    -----------------------------||---------------------|---------------------||
    -----------------------------||---------------------|---------------------||
    --13--14--13------13--------*||*------------5-------|--5--6--5-----5-----*||
    --13--14--13--15--13--------*||*--4----7----5-------|--5--6--5--7--5-----*||
    --------------15-------------||---4----7------------|-----------7---------||
    -----------------------------||---------------------|---------------------||
    
    
      F#5                                                 
    --------------------------|--------------------------|
    --------------------------|--------------------------|
    --------------------------|--------------------------|
    --------------------------|--------------------------|
    --4--4--4--4--4--4--4--4--|--4--4--4--4--4--4--4--4--|
    --2--2--2--2--2--2--2--2--|--2--2--2--2--2--2--2--2--|
    
    
      G5                                                  
    --------------------------|--------------------------|
    --------------------------|--------------------------|
    --------------------------|--------------------------|
    --------------------------|--------------------------|
    --5--5--5--5--5--5--5--5--|--5--5--5--5--5--5--5--5--|
    --3--3--3--3--3--3--3--3--|--3--3--3--3--3--3--3--3--|
    
    
      G#5                        G#5                      
    --------------------------|--------------------------|
    --------------------------|--------------------------|
    --------------------------|--------------------------|
    --------------------------|--------------------------|
    --6--6--6--6--6--6--6--6--|--6--6--6--6--6--6--6--6--|
    --4--4--4--4--4--4--4--4--|--4--4--4--4--4--4--4--4--|
    
    
                                                                          
    --------------------------|-----------------------|------------------|
    --------------------------|-----------------------|------------------|
    --------------------------|-----------------------|------------------|
    --------------------------|-----------------------|------------------|
    --7--7--7--7--8--8--8--8--|--9----10----11--------|------------------|
    --5--5--5--5--6--6--6--6--|--7----8-----9---------|------------------|
    
    
                                                11x                   
    |----------------------|-------------------------||------------------|
    |----------------------|-------------------------||------------------|
    |*-------------5--------|--5--6--5-----5--------*||------------------|
    |*--4----7-----5--------|--5--6--5--7--5--------*||------------------|
    |---4----7-------------|------------7------------||------------------|
    |----------------------|-------------------------||------------------|
    
    The break where rambo and the wolf fight
    
    
                                          5x                   
    |----------------------|-------------------------||------------------|
    |----------------------|-------------------------||------------------|
    |*------------5--------|--5--6--5-----5---------*||------------------|
    |*--4----7----5--------|--5--6--5--7--5---------*||------------------|
    |---4----7-------------|-----------7-------------||------------------|
    |----------------------|-------------------------||------------------|
    
    
                                                                     
    ---------------------|-----------------------|------------------|
    ---------------------|-----------------------|------------------|
    ------------5--------|--5--6--5-----5--------|------------------|
    --4----7----5--------|--5--6--5--7--5--------|------------------|
    --4----7-------------|-----------7-----------|------------------|
    ---------------------|-----------------------|------------------|
    
    
        F#5                     16x                                         
    |----------------------------------||---------------------|------------------|
    |----------------------------------||---------------------|------------------|
    |*--------------------------------*||------------5~-------|------------------|
    |*--------------------------------*||--4----7----5~-------|------------------|
    |---4--4--4--4--4--4--4--4---------||--4----7-------------|------------------|
    |---2--2--2--2--2--2--2--2---------||---------------------|------------------|
    
    
    And the moral of the story is....
    
                                                   
    -----------------------|------------------|------------------|
    -----------------------|------------------|------------------|
    -----------------------|------------------|------------------|
    -------------7----4----|------------------|------------------|
    -------------7----4----|------------------|------------------|
    --12/---x--------------|------------------|------------------|
     

    Тональность:

    Нет текста!



    Назад
    Рекомендуем посмотреть другие песни исполнителя «Green Jelly»:

    • Комментарии Facebook ()
    • Комментарии ВКонтакте



    Добавить в Избранное Браузера
    Сохранить здесь Очистить


    x

    0


    +
    -

    +
    -

    -

    Авторизация





    Зарегистрироваться

    M

    Дата и время

    • 07:02:18
       

    Социальные ссылки


    Наши приложения

    • Muzbank App Play Market
    • Muzbank Amazon App