MUZBANK



A Most Complete Bank Of Music Information

МУЗЫКАЛЬНО-ИНФОРМАЦИОННЫЙ БАНК

Поиск по сайту







    GGreen Lizard • Your Best Friend (аккорды и текст - chords & lyrics)


    217

    Print

    Видео «Your Best Friend (Green Lizard)»

    Видео клипы к песне подбираются автоматически сайтом youtube. Возможны некоторые несоответствия клипов песне.

    ↑ Спрятать рекламу ↑



    Download


     
    
    
    Green Lizard - Your best friend
    
    Tabt by Jeroen Gabri?ls.
    E-mail me at gitaristjg@hotmail.com
    
    Normal tuning.
    / = quick slide
    
    Part A1 (0-0:54) (1:43-2:15)
    E--------------------------------|
    B--------------------------------|
    G--------------------------------|
    D----------5-------------5-7-5---|
    A----4-5-----------4-5-----------|
    E--0-----0-------0-----0---------| Clean.
    
    Part A2 (0:54-1:10) (2:15-2:30)
    [Guitar 1]
    E--------------------------------|
    B--------------------------------|
    G--------------------------------|
    D--------4----------4------------|
    A--4-5-7------4-5-7---7-5-4------|
    E--------------------------------| Clean.
    
    [Guitar 2]
    E--2-----------------------------|
    B----5---------------------------|
    G--------------------------------|
    D--------------------------------|
    A--------------------------------|
    E--------------------------------| Clean.
    
    Part B1 (1:10-1:27) (1:35-1:43) (2:30-2:46) (2:54-3:01-|
    (3:33-3-48) (3:56-4:11---------------------------------|
    E------------------------------------------------------|
    B------------------------------------------------------|
    G------------------------------------------------------|
    D--2222-4444-5555-5555---------------------------------|
    A--2222-4444-5555-5555---------------------------------|
    E--0000-2222-3333-3333---------------------------------| Distortion.
    
    Part B2 (1:27-1:35) (2:46-2:56) (3:48-|3:56)
    E-------------------------------------|
    B-------------------------------------|
    G-------------------------------------|
    D--7777-9999-10-10-10-10--10-10-10-10-|
    A--7777-9999-10-10-10-10--10-10-10-10-|
    E--5555-7777--8--8--8--8---8--8--8--8-| Distortion.
    
    
    Part C (3:01-3:17)
    E--------------------------------|
    B--------------------------------|
    G--------------------------------|
    D--2-0-----------2-0-------------|
    A------0-2-----------0-2--3/2----|
    E--------------------------------| Clean.
    
    Part D (3:17-3:33)
    E--------------------------------|
    B--------------------------------|
    G--------------------------------|
    D--2-2-2-2-2-2-2-2---------------| Listen to the CD for
    A--2-2-2-2-2-2-2-2---------------| the timing.
    E--0-0-0-0-0-0-0-0---------------| Distortion.
    
    Ending (4:12)
    E--------------------------------|
    B--5-----------------------------|
    G--4-----------------------------|
    D--------------------------------|
    A--------------------------------| Let ring.
    E--------------------------------| Distortion.
     

    Тональность:

    Нет текста!



    Назад
    Рекомендуем посмотреть другие песни исполнителя «Green Lizard»:

    • Комментарии Facebook ()
    • Комментарии ВКонтакте



    Добавить в Избранное Браузера
    Сохранить здесь Очистить


    x

    0


    +
    -

    +
    -

    -

    Авторизация





    Зарегистрироваться

    M

    Дата и время

    • 05:14:16
       

    Социальные ссылки


    Наши приложения

    • Muzbank App Play Market
    • Muzbank Amazon App