MUZBANK



A Most Complete Bank Of Music Information

МУЗЫКАЛЬНО-ИНФОРМАЦИОННЫЙ БАНК

Поиск по сайту







    GGreyhoundz • Leech (аккорды и текст - chords & lyrics)


    164

    Print

    Видео «Leech (Greyhoundz)»

    Видео клипы к песне подбираются автоматически сайтом youtube. Возможны некоторые несоответствия клипов песне.

    ↑ Спрятать рекламу ↑



    Download



     
    
    
    song:leech
    album:seven corners of your game
    artist:greyhoundz
    tabbed by:leander m.
    info:any comment,sugestion text/call 09193216020 e-mail leander_85@yahoo.com
    I work it on drop D
     
    Intro:()natural harmonics      guitarII
    E|---------------------------||-------|
    B|---------------------------||-------|
    G|----------------------(9)--||--(9)--|
    D|--9-12-9-10-9-12-9-10-12---||-------|
    A|--9-12-9-10-9-12-9-10-12---||-------|
    D|--9-12-9-10-9-12-9-10-12---||-------|
    
    E|----------------------------    -------------------------------
    B|----------------------------    -------------------------------
    G|----------------------------(2x)-------------------------------(2x) 
    D|----------------------------    ---------------12/-------------
    A|--2-2-2-2-5-2--2-2-2-2-3-2--    --2-2-2-2-5-2--10/--3-2-2-3-2--
    D|--0-0-0-0-0-0--0-0-0-0-0-0--    --0-0-0-0-0-0---0/--0-0-0-0-0--
    
    chorus:
    E|------------|
    B|------------|
    G|------------|
    D|--9~~--7~~--|
    A|--7~~--5~~--|
    D|--0~~--0~~--|
    
    bridge:
    E|-----------------------|
    B|-----------------------|
    G|-----------------------|
    D|----10---12---10---12--|
    A|----10---12---10---12--|
    D|--9-10-9-12-9-10-9-12--|
        .    .    .    .
    tabbed by:leander m.
                                            end
     

    Тональность:

    Нет текста!



    Назад
    Рекомендуем посмотреть другие песни исполнителя «Greyhoundz»:

    • Комментарии Facebook ()
    • Комментарии ВКонтакте



    Добавить в Избранное Браузера
    Сохранить здесь Очистить


    x

    0


    +
    -

    +
    -

    -

    Авторизация





    Зарегистрироваться

    M

    Дата и время

    • 13:55:09
       

    Социальные ссылки


    Наши приложения

    • Muzbank App Play Market
    • Muzbank Amazon App