MUZBANK



A Most Complete Bank Of Music Information

МУЗЫКАЛЬНО-ИНФОРМАЦИОННЫЙ БАНК

Поиск по сайту







    GGreyhoundz • Pig Face (аккорды и текст - chords & lyrics)


    249

    Print

    Видео «Pig Face (Greyhoundz)»

    Видео клипы к песне подбираются автоматически сайтом youtube. Возможны некоторые несоответствия клипов песне.

    ↑ Спрятать рекламу ↑



    Download


     
    
    
    song:pig face
    album:seven corners of your game
    artist:greyhoundz
    tabbed by:leander m.
    info:contact me leander_85@yahoo.com text/call 09193216020
    intro/chorus:
    E|-----------------------|    -------------------------|
    B|-----------------------|    -------------------------|
    G|-----------------------|(3x)-------------------------|
    D|----5/4-----5/4-----9--|    ----9/7-----7/6-----6-4--|
    A|----3/2-----3/2-----7--|    ----7/5-----5/4-----4-2--|
    D|--0-0/0-0-0-0/0-0-0-0--|    --0-0/0-0-0-0/0-0-0-0-0--|
        .     . .     . .           .     . .     . .
    stanza I riff(with little pitch
    E|---------------------------------    --------------------------------|
    B|-----12----12----12----12----12--    -----12---10---12---10----12----|
    G|--11----11----11----11----11-----(3x)--11----9----8----9----11-------|
    D|---------------------------------    --------------------------------|
    A|---------------------------------    --------------------------------|
    D|---------------------------------    --------------------------------|
    
    repeat chorus
    
    riff
    E|--------------------------------------
    B|--------------------------------------
    G|--------------------------------------
    D|--4-----7~~-------4--4-----5~~-5h7-4--
    A|--2-----5~~-------2--2-----5~~-5h7-2--
    D|--0-0-0-0~~-7-7-0-0--0-0-0-5~~-5h7-0--
         . .    . .        . .
    -----------------------------------------------|
    -----------------------------------------------|
    -----------------------------------------------|
    --4-----7~~-------4-----2h3p2---2h3p2---2-3----|
    --2-----5~~-------2-2h4-------5-------4-----2--|
    --0-0-0-0~~-7-7-0-0----------------------------|
        . .     . .
    riff II
    E|-------------------------|
    B|-------------------------|
    G|-------------------------|(3x)
    D|--4-----97-------7/6-4--|
    A|--2-----75-------5/4-2--|
    D|--0-0-0-0-0-0-0-0/0-0--|
          . .     . .
    E|-----------------------------|
    B|-----------------------------|
    G|-----------------------------|         
    D|--9-----97-----76-----6-4--|
    A|--7-----75-----54-----4-2--|
    D|--0-0-0-0-0-0-0-0-0-0-0--|
          . .     . .     . .
    repeat chorus riff
    stanza
    chorus
    ...put it away 
    
    tabbed by:leander_85@yahoo.com   the end
     

    Тональность:

    Нет текста!



    Назад
    Рекомендуем посмотреть другие песни исполнителя «Greyhoundz»:

    • Комментарии Facebook ()
    • Комментарии ВКонтакте



    Добавить в Избранное Браузера
    Сохранить здесь Очистить


    x

    0


    +
    -

    +
    -

    -

    Авторизация





    Зарегистрироваться

    M

    Дата и время

    • 01:17:08
       

    Социальные ссылки


    Наши приложения

    • Muzbank App Play Market
    • Muzbank Amazon App