MUZBANK



A Most Complete Bank Of Music Information

МУЗЫКАЛЬНО-ИНФОРМАЦИОННЫЙ БАНК

Поиск по сайту







    GGreyhoundz • Y (аккорды и текст - chords & lyrics)


    219

    Print

    Видео «Y (Greyhoundz)»

    Видео клипы к песне подбираются автоматически сайтом youtube. Возможны некоторые несоответствия клипов песне.

    ↑ Спрятать рекламу ↑



    Download


     
    
    
    song:Y?!
    album:seven corners of you game
    artist:greyhoundz
    tabbed:leander m.
    
    legend:
    ^press ped.pitch up
    vpress pedal pitch down
    ~let ring
    .palm mute
    ()natural harmonics
    artificial harmonics
    
    tuned drop D
    Intro:stanza
          1ST PART          2ND PART            3rd part        4th part 
               ^ v              ^ v ^ v ^                      
    E|--------------||-------------------||--14p12----12h14--||--12h14--|
    B|--(12)~~~-----||--(12)~~~----------||--------16--------||---------|
    G|--------------||-------------------||------------------||---------|
    D|--------------||-------------------||------------------||---------|
    A|--------------||-------------------||------------------||---------|
    D|--------------||-------------------||------------------||---------|
                                                                  ^^^
                        repeat this I dont know how many times----||| 
    guitar II(kasabay ng guitar I press ped.wah)just hear the song 
    
    chorus
    E|-----------------------------------|
    B|-----------------------------------|
    G|-----------------------------------|
    D|--12-11-11-9--12-11-11-9--12-11-9--|
    A|--12-11-11-9--12-11-11-9--12-11-9--|
    D|--12-11-11-9--12-11-11-9--12-11-9--|
    repeat until end of chorus...syempre
    
    stanza
    chorus
    
    bridge:
    E|------------------------------|--------------------------|
    B|------------------------------|--------------------------|
    G|------------------------------|--------------------------|
    D|----------11---------7-----5--|--------11-------7-----5--|
    A|--9-9-9-9----7-7-7-7---5-5----|--9-9-9----7-7-7---5-5----|
    D|------------------------------|--------------------------|
        . . . .    . . . .   . .       . . .    . . .   . .
    fill me,drive me crazy,touch me
    E|-----------------------------|
    B|-----------------------------|
    G|-----------------------------|
    D|--5-5-5-5-5-6-3-3-3-3-4-1-2--|
    A|--5-5-5-5-5-6-3-3-3-3-4-1-2--|
    D|--5-5-5-5-5-6-3-3-3-3-4-1-2--|
    
    stanza
    chorus
    finale:(finalle same as riff II)
    
    E|--------------------------|    --(7)--|
    B|--------------------------|    -------|
    G|--------------------------|(9x)-------|
    D|--12-11-11-9--12-11-11-9--|    -------|
    A|--12-11-11-9--12-11-11-9--|    -------|
    D|--12-11-11-9--12-11-11-9--|    -------|
                                 End
    tabbed by:leander_85@yahoo.com
              text/call09193216020
     

    Тональность:

    Нет текста!



    Назад
    Рекомендуем посмотреть другие песни исполнителя «Greyhoundz»:

    • Комментарии Facebook ()
    • Комментарии ВКонтакте



    Добавить в Избранное Браузера
    Сохранить здесь Очистить


    x

    0


    +
    -

    +
    -

    -

    Авторизация





    Зарегистрироваться

    M

    Дата и время

    • 05:04:28
       

    Социальные ссылки


    Наши приложения

    • Muzbank App Play Market
    • Muzbank Amazon App