MUZBANK



A Most Complete Bank Of Music Information

МУЗЫКАЛЬНО-ИНФОРМАЦИОННЫЙ БАНК

Поиск по сайту







    ГГриг Эдвард • Бабушкин минуэт - Лирическая пьеса op.68 №2 (аккорды и текст - chords & lyrics)


    382

    Print

    Видео «Бабушкин минуэт - Лирическая пьеса op.68 №2 (Григ Эдвард)»

    Видео клипы к песне подбираются автоматически сайтом youtube. Возможны некоторые несоответствия клипов песне.

    ↑ Спрятать рекламу ↑



    Download


    E|------------------|-------------|-----------------|-0--------|
    B|--------------2---|-0---0-------|--------------2--|----------|
    G|-2h4p2-1--2---2---|-1---1-------|-2h4p2-1--2---2--|-1--------|
    D|----------4-2-1---|-2---2-------|----------4-2-1--|-2--------|
    A|--------------2---|-----2-------|--------------2--|-----2----|
    E|------------------|---------0---|-----------------|--------0-|
    
    E|---------------|----------------|------------------|---------|
    B|---------------|----------------|------------------|---------|
    G|-------------2-|--------------2-|--------------1---|-2-------|
    D|-4h6p4----4--2-|-4h6p4----4---2-|-4h6p4----4---2-0-|----2----|
    A|-------7--5--4-|-------7--5---4-|-------7--5-4-2---|-4-----0-|
    E|---------------|----------------|------------------|-5-------|
    
    E|----------------------9-------|-7-----7-------|
    B|-10h12p10-9--10------10-------|-9-----9-------|
    G|-------------11---9---8-------|-9-------------|
    D|----------------------9-------|-------9-------|
    A|------------------------------|-------------7-|
    E|------------------------------|---------------|
    
    E|----------------------9-------|-12-------------|
    B|-10h12p10-9--10------10-------|--9-------------|
    G|-------------11---9---8-------|--9-------------|
    D|----------------------9-------|--------9-------|
    A|------------------------------|--------------7-|
    E|------------------------------|----------------|
    
    E|--------------5-|-------------5-|------------------|-5-------|
    B|-7h9p7-5--7---5-|-7h9p7-5--7--5-|-7h9p7-5--7---9---|-5-------|
    G|----------7-----|----------7----|----------7-6---7-|-6-------|
    D|----------------|---------------|--------------9---|-7-------|
    A|----------5---4-|----------5--4-|----------5---7---|----7----|
    E|----------------|---------------|------------------|-------5-|
    
    E|-------------------|------------|----------------|-----------|
    B|-------------------|------------|----------------|-7---------|
    G|*-6h7p6----6---6---|-7-9-6---6--|-6h7p6----6---6-|---9-6---6-|
    D|*-------9----------|------------|-------9--------|-----------|
    A|-------------------|------------|----------------|-----------|
    E|-------------------|------------|----------------|-----------|
    
    E|-------------|-------------|-------------|-------------|
    B|-------7-----|-------------|-------5-----|-------------|
    G|-7---7---7---|-7---7---7---|-6---6---6---|-6---6---6---|
    D|---9-------7-|-------6-----|---7-------6-|-------4-----|
    A|-------------|---9-------7-|-------------|---7-------5-|
    E|-------------|-------------|-------------|-------------|
    
    E|-------------|-------------|-------------|-----------|
    B|-------3-----|-------------|-------------|-----------|
    G|-4---4---4---|-4---4---4---|-2-------6---|-2-----6---|
    D|---6---3---6-|-------3-----|---4-6-------|---4-6-----|
    A|-------------|---6-------4-|-------4-----|---------4-|
    E|-------------|-------------|-------------|-----------|
    
    E|-------------|-------------|-------------|-------------|
    B|-------------|-------------|-------------|-------------|
    G|-2-------6---|-------6-----|-----6---6---|-6---6---6---|
    D|---4-6-----7-|-4-6-----7-4-|-6-----6---6-|---6---6---6-|
    A|-------4-----|-----4-------|---4---------|-------------|
    E|-------------|-------------|-------------|-------------|
    
    E|-------------|-5-----------|-10-12-9---9---|-9-|
    B|---5---------|---7-9---9---|---------------|---|
    G|-7---6---6---|-------------|---------------|---|
    D|-------------|-------------|---------------|---|
    A|-------------|-------------|---------------|---|
    E|-------------|-------------|---------------|---|
    
    E|------------------|-----------|------------------|-0---------|
    B|--------------2---|-0---0-----|--------------2---|-----------|
    G|-2h4p2-1--2---2---|-1---1-----|-2h4p2-1--2---2---|-1---------|
    D|----------4-2-1---|-2---2-----|----------4-2-1---|-2---------|
    A|--------------2---|-----2-----|--------------2---|-----2-----|
    E|------------------|---------0-|------------------|---------0-|
    
    E|----------------|----------------|------------------|--------|
    B|----------------|----------------|------------------|--------|
    G|--------------2-|--------------2-|--------------1---|-2------|
    D|-4h6p4----4---2-|-4h6p4----4---2-|-4h6p4----4---2-0-|----2---|
    A|-------7--5---4-|-------7--5---4-|-------7--5-4-2---|-4----0-|
    E|----------------|----------------|------------------|-5------|
    
    E|--------------5---|--------------5---|--------------4---|
    B|-7h9p7-5--7---5---|-7h9p7-5--7---5---|-7h9p7-5--7---5-3-|
    G|----------7-------|----------7-------|----------7-6-4---|
    D|------------------|------------------|------------------|
    A|----------5---4---|----------5---4---|------------------|
    E|------------------|------------------|------------------|
    
    E|-14h16p14-12-14----16----|-------------|------------------|
    B|-------------15-14-17-15-|-------------|------------------|
    G|-------------------16----|-------------|--------------1---|
    D|-------------------------|-------------|-4h6p4----4---2-0-|
    A|-------------------------|-------------|-------7--5-4-2---|
    E|-------------------------|-------------|------------------|
    
    E|--------------||------------|
    B|--------------||------------|
    G|-2-----------*||--2---------|
    D|-----2-------*||------2-----|
    A|-4-------0----||--4---------|
    E|-5------------||--5-------5-|
    

    Тональность:

    Нет текста!



    Назад
    Рекомендуем посмотреть другие песни исполнителя «Григ Эдвард»:

    • Комментарии Facebook ()
    • Комментарии ВКонтакте



    Добавить в Избранное Браузера
    Сохранить здесь Очистить


    x

    0


    +
    -

    +
    -

    -

    Авторизация





    Зарегистрироваться

    M

    Дата и время

    • 05:23:31
       

    Социальные ссылки


    Наши приложения

    • Muzbank App Play Market
    • Muzbank Amazon App