MUZBANK



A Most Complete Bank Of Music Information

МУЗЫКАЛЬНО-ИНФОРМАЦИОННЫЙ БАНК

Поиск по сайту







    GGrim Skunk • Misfit (аккорды и текст - chords & lyrics)


    202

    Print

    Видео «Misfit (Grim Skunk)»

    Видео клипы к песне подбираются автоматически сайтом youtube. Возможны некоторые несоответствия клипов песне.

    ↑ Спрятать рекламу ↑



    Download


     
    
    
    Band: Grim Skunk
    Song: Misfit
    Album: Ep 2000
    Tabbed By: FaTSkUnK
    
    Intro   
    
    e|--------------------------------------------|
    B|--------------------------------------------|
    G|------7-7-----------------7-7-------7-7-7---|
    D|--9-9-7-7-7-7-10-10---9-9-7-7---7-7-7-7-7-9-|
    A|--9-9-5-5-7-7-10-10---9-9-5-5---7-7-5-5-5-9-|
    E|--7-7-----5-5-8--8----7-7-------5-5-------7-|
    
    Post-Intro/Outro
    
      X3
    e|------|-------------|
    B|------|-------------|
    G|----5-|-------------|
    D|-10-7-|-9-9-9-9-9-9-|
    A|-10-7-|-9-9-9-9-9-9-|
    E|-8----|-7-7-7-7-7-7-|
         
    Verse
      X2
       pm.................         pm..........................................
    e|---------------------------|---------------------------------------------|
    B|---------------------------|---------------------------------------------|
    G|-------------------------7-|-------------7-7-7-7-7-7---------------------|
    D|-9-9-9-9-9-9-9-9-9-9--10-7-|-9-9-9-9-9-9-7-7-7-7-7-7-7-7-7-7-7-7-7-7-7-7-|
    A|-9-9-9-9-9-9-9-9-9-9--10-5-|-9-9-9-9-9-9-5-5-5-5-5-5-7-7-7-7-7-7-7-7-7-7-|
    E|-7-7-7-7-7-7-7-7-7-7--8----|-7-7-7-7-7-7-------------5-5-5-5-5-5-5-5-5-5-|
    
    - Verse X3
    
    e|--------------------------------------------------------------------|
    B|-----------------------12----------------10-10-10B--12---12---12B---|
    G|-------9-9-------9-11B----11---11-11-11B----------------------------|
    D|--9-12------9-12----------------------------------------------------|
    A|--------------------------------------------------------------------|
    E|--------------------------------------------------------------------|
    
    Chorus
    
    e|---------------------------------------------------------------------------
    B|---------------------------------------------------------------------------
    G|-7-7-7-7-7-7-7-7-7-7-7-7-7-------------------------9-9-9-9-9-9-9-9-9-9-9-9-
    D|-7-7-7-7-7-7-7-7-7-7-7-7-7-9-9-9-9-9-9-9-9-9-9-9-9-9-9-9-9-9-9-9-9-9-9-9-9-
    A|-5-5-5-5-5-5-5-5-5-5-5-5-5-9-9-9-9-9-9-9-9-9-9-9-9-7-7-7-7-7-7-7-7-7-7-7-7-
    E|---------------------------7-7-7-7-7-7-7-7-7-7-7-7-------------------------
    
      -------------------------------------|
      -------------------------------------|
      -------------------------------------|  X2
      -10-10-10-10-10-10-10-10-10-10-10-10-|
      -10-10-10-10-10-10-10-10-10-10-10-10-|
      -8--8--8--8--8--8--8--8--8--8--8--8--|
    
    - Verse X2
    - Chorus
    
    e|-----------------------|
    B|-----------------------|
    G|-7-7-7-7-7-----------9-|
    D|-7-7-7-7-7-9-9-9-9-9-9-| X8
    A|-5-5-5-5-5-9-9-9-9-9-7-|
    E|-----------7-7-7-7-7---|
      
       X2
    e|--------------------------------------------------|---|
    B|--------------------------------------------------|---|
    G|-7-7-7-7-7----------------------------------------|---|
    D|-7-7-7-7-7-10-10-10-10-10-9-9-9-9-9-9-9-9-9-9-9-9-|-9-|
    A|-5-5-5-5-5-10-10-10-10-10-9-9-9-9-9-9-9-9-9-9-9-9-|-9-|
    E|-----------8--8--8--8--8--7-7-7-7-7-7-7-7-7-7-7-7-|-7-|
    
    - Outro
     

    Тональность:

    Нет текста!



    Назад
    Рекомендуем посмотреть другие песни исполнителя «Grim Skunk»:

    • Комментарии Facebook ()
    • Комментарии ВКонтакте



    Добавить в Избранное Браузера
    Сохранить здесь Очистить


    x

    0


    +
    -

    +
    -

    -

    Авторизация





    Зарегистрироваться

    M

    Дата и время

    • 01:11:00
       

    Социальные ссылки


    Наши приложения

    • Muzbank App Play Market
    • Muzbank Amazon App