MUZBANK



A Most Complete Bank Of Music Information

МУЗЫКАЛЬНО-ИНФОРМАЦИОННЫЙ БАНК

Поиск по сайту







    GGrim Skunk • Pourquoi Pourquoi Ne Pas Fumer (аккорды и текст - chords & lyrics)


    240

    Print

    Видео «Pourquoi Pourquoi Ne Pas Fumer (Grim Skunk)»

    Видео клипы к песне подбираются автоматически сайтом youtube. Возможны некоторые несоответствия клипов песне.

    ↑ Спрятать рекламу ↑



    Download


     
    
    
    song: Pourquoi pourquoi ne pas fumer
    Band: Grim skunk
    album: Automn flower
    tabbed by: Carlos Pino
    
    G:-----------------------------------------------
    D:------------------------------------------------
    A:------------------------------5-5-5-5-7-7--
    E:----5-5-5-5-8--8--8--8--------------------
    
    G:-----------------------------------------------
    D:-----------------------------------------------
    A:--------------------------5-5-5-5-7-7-7-2-|
    E:_5-5-5-5-8--8--8--8-------------------|
    
    
    G:----------------------------------------|
    D:----------------------------------------|
    A:--------------------5-5-5-5-7-7-7--|
    E:5-5-5-3-3-3-3-----------------------|
    
    E:-5...-3...-7...-| 5X 
     
    G:----------|
    D:----------|
    A:----------|
    E:-5-5-3---|
    
    G:---------------------------------------------|
    D:---------------------------------------------|
    A:--------------------------5-5-5-5-7-7----|
    E:-5-5-5-5-8--8--8--8----------------------|
    
    G:---------------------------------------------
    D:-----------------------------------------------| 
    A:--------------------------5-5-5-5-7-7-7-
    E:-5-5-5-5-8--8--8--8------------------- 0-| 
    
    G:------------------------------------------|
    D:-------------------------------------------|
    A:----------------------5-5-5-5-7-7-7-|
    E:-5-5-5-3-3-3-3----------------------|
    
    G:----------------------------------------------------- 
    D:----------------------------------------------------| 2X
    A:-------------------------3-3-3-3-----3-|
    E:--5-5---3-3-3-3-5-5------------3------|
    
    G:-----------------------------------------|
    D:------------------------------------------|
    A:------------------3-----------3-0-3-5-3-2-|
    E:-5-5-3-3-3-5----5-3-5-5-------------|
    
    G:-------------------------------------|
    D:-------------------------------------|
    A:-0-0-0-0-3-3-3-3-5-5-5-5-7-|
    
    G:------------------------------------------------|
    D:------------------------------------------------|
    A:--------------------------5-5-5-5-7-7-7-7-|
    E:-5-5-5-5-8--8--8--8------------------------|
    
    G:------------------------------------------|
    D:-----------------------------------------
    A:------------------------5-5-5-5-7-7-7-|
    E:-5-5-5-5-3-3-3-3---------------|
     

    Тональность:

    Нет текста!



    Назад
    Рекомендуем посмотреть другие песни исполнителя «Grim Skunk»:

    • Комментарии Facebook ()
    • Комментарии ВКонтакте



    Добавить в Избранное Браузера
    Сохранить здесь Очистить


    x

    0


    +
    -

    +
    -

    -

    Авторизация





    Зарегистрироваться

    M

    Дата и время

    • 17:40:10
       

    Социальные ссылки


    Наши приложения

    • Muzbank App Play Market
    • Muzbank Amazon App