MUZBANK



A Most Complete Bank Of Music Information

МУЗЫКАЛЬНО-ИНФОРМАЦИОННЫЙ БАНК

Поиск по сайту







    GGrim Skunk • Seventh Wave (аккорды и текст - chords & lyrics)


    215

    Print

    Видео «Seventh Wave (Grim Skunk)»

    Видео клипы к песне подбираются автоматически сайтом youtube. Возможны некоторые несоответствия клипов песне.

    ↑ Спрятать рекламу ↑



    Download


     
    
    
    e|------------------------------|------------------------------|
    B|------------------------------|------------------------------|
    G|------------------------------|------------------------------|
    D|------------------------------|-5-5-5-3--3-----6-6-6-5-------|
    A|-6-6-6-5--5-5-5--8-8-8-6--6-6-|------------6-6---------------|
    E|------------------------------|------------------------------|
     |                              |                              |
    e|------------------------14/15-|------------------------------|
    B|------------------------------|------------------------------|
    G|------------------------------|-4-4-4-4-4-4-4-4-5-5-5-4--4-4-|
    D|------------------------------|------------------------------|
    A|------------------------------|------------------------------|
    E|------------------------------|------------------------------|
    
    [00:23]
    
    
    e|--------------------------------------------------------|
    B|--------------------------------------------------------|
    G|-------3---------------3--------------------3-3------3--|
    D|-5---------------5------------6-----------6--------6----|
    A|--------------------------------------------------------|
    E|--------------------------------------------------------|
    
    [00:30]
    
    e|----------------------------------------------------|
    B|----------------------------------------------------|
    G|----------------------------------------------------|
    D|-10-10-10-10-10-10-10-10-3-3-3-3-3-3-3-3--6-6-6-6-6-|
    A|-10-10-10-10-10-10-10-10-3-3-3-3-3-3-3-3--6-6-6-6-6-|
    E|-8--8--8--8--8--8--8--8--1-1-1-1-1-1-1-1--4-4-4-4-4-|
     |                                                    |
    e|----------------------------------------------------|
    B|-3--4--3--4--3--4--4--------------------------------|
    G|---------------------------2----5--7--5-------------|
    D|-------------------------3----------------6-6-6-6-6-|
    A|------------------------------------------6-6-6-6-6-|
    E|------------------------------------------4-4-4-4-4-|
    
    [00:35]  Refrain...
    
    
    e|----------------------------|---------------------------|
    B|----------------------------|---------------------------|
    G|-8--------------------------|-8--------------8----------|
    D|-8--8-8-10-10---10--5-5-6-6-|-8--8-8-10-10---8---8-10-8-|
    A|-6--8-8-10-10---10--5-5-6-6-|-6--8-8-10-10---6---8-10-8-|
    E|----6-6-8--8----8---3-3-4-4-|----6-6-8--8--------6-8--6-|
    
    [00:45] ...refrain
      2X
    e|------------------------------------------|
    B|------------------------------------------|
    G|------------------------------------------|
    D|------------------------------------------|
    A|-10-10-10-8--8-6--11-11-11-10--10-10------|
    E|------------------------------------------|
     |                                          |
    e|------------------------------------------|
    B|------------------------------------------|
    G|-4--4--4--4--4-4--4--4--5--5--5--3-3--3-3-|
    D|------------------------------------------|
    A|------------------------------------------|
    E|------------------------------------------|
    
    e|----------------------------------|
    B|----------------------------------|
    G|----------------------------------|
    D|----------------------------------|
    A|-10----10-8--8-6--11-11-11-10--10-|
    E|----------------------------------|
     |                                  |
    e|-3-----3-----3-----3-----4-4-4--3-|
    B|-3--3--3--3--3--3--3--3--4-4-4--3-|
    G|----------------------------------|
    D|----------------------------------|
    A|----------------------------------|
    E|----------------------------------|
    
    [00:59]
    
    e|-----------------|
    B|-----------------|
    G|-----------------|
    D|-5-----6------/8-|
    A|-5-----6------/8-|
    E|-3-----4------/6-|
     |                 |
    e|-3-----4-4---4/6-|
    B|-3-----4-4---4/6-|
    G|-----------------|
    D|-----------------|
    A|-----------------|
    E|-----------------|
    
    [01:12]
    
    e|------------|----------------------------------------------------|
    B|------------|----------------------------------------------------|
    G|------------|----------------------------------------------------|
    D|-5--6-6-8-8-|-10-10-10-10-10-10-10-10-3-3-3-3-3-3-3-3--6-6-6-6-6-|
    A|-5--6-6-8-8-|-10-10-10-10-10-10-10-10-3-3-3-3-3-3-3-3--6-6-6-6-6-|
    E|-3--4-4-6-6-|-8--8--8--8--8--8--8--8--1-1-1-1-1-1-1-1--4-4-4-4-4-|
    
    e|------------|----------------------------------------------------|
    B|------------|-3--4--3--4-----4p0---------------------------------|
    G|------------|-------------------------2-3-2-4b----2--------------|
    D|------------|------------------------------------------6-6-6-6-6-|
    A|------------|------------------------------------------6-6-6-6-6-|
    E|------------|------------------------------------------4-4-4-4-4-|
    
    -Refrain... ...refrain
    
    [01:55] 
    
    e|------------|
    B|------------|
    G|------------|
    D|-5--6-6-8-8-|
    A|-5--6-6-8-8-|
    E|-3--4-4-6-6-|
    
    [02:03]
       sous le solo
    e|---------------------------------------------------------------------------|
    B|---------------------------------------------------------------------------|
    G|---------------------------------------------------------------------------|
    D|-10-10-10-10-10-10-10-10--3-3-3-3-3-3-3-3--6-6-6-6-6-6-6-6-6-6-6-6-6-6-6-6-|
    A|-10-10-10-10-10-10-10-10--3-3-3-3-3-3-3-3--6-6-6-6-6-6-6-6-6-6-6-6-6-6-6-6-|
    E|-8--8--8--8--8--8--8--8---1-1-1-1-1-1-1-1--4-4-4-4-4-4-4-4-4-4-4-4-4-4-4-4-|
    
       solo                                   
    e|--------------------------------------------------------------------------------------------|
    B|-------------------------------------------------11---------11------------------------------|
    G|------------------------------------8-10-10--10b----10-10------10r-10-8-10b---10-10-8-10-10-|
    D|-10-10-10-12-13---10-10-10-10-8-10----------------------------------------------------------|
    A|--------------------------------------------------------------------------------------------|
    E|--------------------------------------------------------------------------------------------|
    
    e|-------------------------------------------------------------------------|
    B|-------------------------------------------------------------------------|
    G|-10-12--12-12-12-10-10-----------------------8---8-8--10-10--12-12-12-12-|
    D|------------------------12-13--13-13-10-8-10-----------------------------|
    A|-------------------------------------------------------------------------|
    E|-------------------------------------------------------------------------|
    
    e|-8----11-11--13--13--15--15---15-15-15-15-15-15-15-15-15p13-15p13-11-11-11-11-11-11-11-|
    B|---9-----------------------------------------------------------------------------------|
    G|---------------------------------------------------------------------------------------|
    D|---------------------------------------------------------------------------------------|
    A|---------------------------------------------------------------------------------------|
    E|---------------------------------------------------------------------------------------|
    
    
    
    [02:22]
    
    e|----------------------------|--------------------------|
    B|----------------------------|--------------------------|
    G|-8--------------------------|--------------------------|
    D|-8--8-8-10-10---10--5-5-6-6-|-10--3-3--6-6-6-6-6-6-6-6-|
    A|-6--8-8-10-10---10--5-5-6-6-|-10--3-3--6-6-6-6-6-6-6-6-|
    E|----6-6-8--8----8---3-3-4-4-|-8---1-1--4-4-4-4-4-4-4-4-|
    
    -refrain
    
      2X
    e|------------------------------------------|
    B|------------------------------------------|
    G|------------------------------------------|
    D|------------------------------------------|
    A|-10-10-10-8--8-6--11-11-11-10--10-10------|
    E|------------------------------------------|
     |  1ierX                    2e X             

    Тональность:

    Нет текста!



    Назад
    Рекомендуем посмотреть другие песни исполнителя «Grim Skunk»:

    • Комментарии Facebook ()
    • Комментарии ВКонтакте



    Добавить в Избранное Браузера
    Сохранить здесь Очистить


    x

    0


    +
    -

    +
    -

    -

    Авторизация





    Зарегистрироваться

    M

    Дата и время

    • 07:09:20
       

    Социальные ссылки


    Наши приложения

    • Muzbank App Play Market
    • Muzbank Amazon App