MUZBANK



A Most Complete Bank Of Music Information

МУЗЫКАЛЬНО-ИНФОРМАЦИОННЫЙ БАНК

Поиск по сайту







    GGrimskunk • Brussels 1 (аккорды и текст - chords & lyrics)


    259

    Print

    Видео «Brussels 1 (Grimskunk)»

    Видео клипы к песне подбираются автоматически сайтом youtube. Возможны некоторые несоответствия клипов песне.

    ↑ Спрятать рекламу ↑



    Download


     
    
    
    ----------------------------------------
    BRUSSELS 109 / grim skunk
    ----------------------------------------
    
    Intro
    G --------|--------|--------|--------|--------|----------------|
    D --------|--------|--------|--------|--------|----------------|
    A --------|--------|--------|--------|--------|3-----3----3----|
    E --------|--------|--------|--------|--------|----------------|
    
    Riff 1
    G --------|--------|--------|--------|--------|--------|
    D --------|--------|--------|--------|--------|--------|
    A 00000000|00000000|33333333|33333333|00000000|33333333|
    E --------|--------|--------|--------|--------|--------|
    
    G --------|--------|--------|----------------|
    D 33333333|3-2-0---|--------|----------------|
    A --------|------3-|00000000|3-----3----3----|
    E --------|--------|--------|----------------|
    
    Riff 2
    G --------|--------|--------|--------|--------|--------|
    D 0-000-02|3333320-|--------|--------|00000000|33333333|
    A -----3--|-------3|00000000|33333333|--------|--------|
    E --------|--------|--------|--------|--------|--------|
    
    G --------|----------------|--------|--------|--------|--------|
    D --------|----------------|00000-02|33333333|00000-02|3333320-|
    A 00000000|3-----3----3----|-----3--|--------|-----3--|-------3|
    E --------|----------------|--------|--------|--------|--------|
    
    Riff 3
    G --------|--------|--------|--------|--------|--------|--------|--------|
    
    D --------|--------|00000000|00000000|--------|--------|00000000|00000000|
    A 00000000|00000000|--------|--------|00000000|00000000|--------|--------|
    E --------|--------|--------|--------|--------|--------|--------|--------|
    
    Riff 4
    G --------|--------|--------|--------|--------|--------|--------|--------|
    D -----2-0|-0000-02|33333322|00------|----20-0|-0000-02|33333333|2200----|
    A 0-000-3-|-----3--|--------|--3300--|0-00--3-|-----3--|--------|----3300|
    E --------|--------|--------|------33|--------|--------|--------|--------|
    
    Riff 5
    G --------|--------|--------|--------|--------|--------|
    D -----0--|--------|-----0--|---02---|2----0--|--------|
    A 0--3---0|-000000-|---3----|--3--30-|---3---3|-3333333|
    E --------|--------|1------3|-3------|--------|--------|
    
    Riff 2
    G --------|--------|--------|--------|--------|--------|
    D 0-000-02|3333320-|--------|--------|00000000|33333333|
    A -----3--|-------3|00000000|33333333|--------|--------|
    E --------|--------|--------|--------|--------|--------|
    
    G --------|----------------|--------|--------|--------|--------|
    D --------|----------------|00000-02|33333333|00000-02|3333320-|
    A 00000000|3-----3----3----|-----3--|--------|-----3--|-------3|
    E --------|----------------|--------|--------|--------|--------|
    
    Riff 3~
    G --------|--------|--------|--------|
    D --------|--------|00000000|00000000|
    A 00000000|00000000|--------|--------|
    E --------|--------|--------|--------|
    
    Riff 4
    G --------|--------|--------|--------|--------|--------|--------|--------|
    D -----2-0|-0000-02|33333322|00------|----20-0|-0000-02|33333333|2200----|
    A 0-000-3-|-----3--|--------|--3300--|0-00--3-|-----3--|--------|----3300|
    E --------|--------|--------|------33|--------|--------|--------|--------|
    
    Riff 4
    G --------|--------|--------|--------|--------|--------|--------|--------|-|
    D -----2-0|-0000-02|33333322|00------|----20-0|-0000-02|33333333|2200----|-|
    A 0-000-3-|-----3--|--------|--3300--|0-00--3-|-----3--|--------|----3300|0|
    E --------|--------|--------|------33|--------|--------|--------|--------|-|
    
    Intro~                                           (slide)
    G |--------|--------|--------|--------|----------------|----------------|
    D |--------|--------|--------|--------|----------------|----------------|
    A |--------|--------|--------|--------|------------3/5-|3-----3----3----|
    E |--------|--------|--------|--------|----------------|----------------|
    
    Riff 1
    G --------|--------|--------|--------|--------|--------|
    D --------|--------|--------|--------|--------|--------|
    A 00000000|00000000|33333333|33333333|00000000|33333333|
    E --------|--------|--------|--------|--------|--------|
    
    G --------|--------|--------|--------|
    D 33333333|3-2-0---|--------|--------|
    A --------|------3-|00000000|3--3--3-|
    E --------|--------|--------|--------|
    
    Riff 2
    G --------|--------|--------|--------|--------|--------|
    D 0-000-02|3333320-|--------|--------|00000000|33333333|
    A -----3--|-------3|00000000|33333333|--------|--------|
    E --------|--------|--------|--------|--------|--------|
    
    G --------|----------------|--------|--------|--------|--------|
    D --------|----------------|00000-02|33333333|00000-02|3333320-|
    A 00000000|3-----3----3----|-----3--|--------|-----3--|-------3|
    E --------|----------------|--------|--------|--------|--------|
    
    Ending
    G --------|
    D --------|
    A 0--3---0|
    E -----3--|
     

    Тональность:

    Нет текста!



    Назад
    Рекомендуем посмотреть другие песни исполнителя «Grimskunk»:

    • Комментарии Facebook ()
    • Комментарии ВКонтакте



    Добавить в Избранное Браузера
    Сохранить здесь Очистить


    x

    0


    +
    -

    +
    -

    -

    Авторизация





    Зарегистрироваться

    M

    Дата и время

    • 09:13:17
       

    Социальные ссылки


    Наши приложения

    • Muzbank App Play Market
    • Muzbank Amazon App