MUZBANK



A Most Complete Bank Of Music Information

МУЗЫКАЛЬНО-ИНФОРМАЦИОННЫЙ БАНК

Поиск по сайту







    GGrinspoon • All Good (аккорды и текст - chords & lyrics)


    256

    Print

    Видео «All Good (Grinspoon)»

    Видео клипы к песне подбираются автоматически сайтом youtube. Возможны некоторые несоответствия клипов песне.

    ↑ Спрятать рекламу ↑



    Download


     
    
    
    BAND: GRINSPOON
    ALBUM: LOST CONTROL SINGLE
    SONG: ALL GOOD (TRACK 2)
    
    TABBED BY:BEN WOODMASON
    E-MAIL: benwoody21@hotmail.com
    
    INSTRUMENT: GUITAR
    TUNING: DROP D (DADGBE)
    
    Legend:
    PM - palm mute
    X - muted string
    h - hammer on
    p - pull off
    (lr) - let ring
    /- slide up
    b - bend
    
    NOTE: This tab is not written to exact time. listen to the cd
    to get that.
    
    
    INTRO/MAIN RIFF: (DISTORTION ON)
    d:--5-7--3-5-0-(lr)--------5-7--3-5---------
    A:----------------------------------3b-(lr)- x 4
    D:------------------------------------------
    
    HEAVY PART 1:
    d:--5/7--3/5-0---3-3-0-3-0
    A:--5/7--3/5-0---3-3-0-3-0 x 4
    D:--5/7--3/5-0---3-3-0-3-0
    
    
    VERSE: (SOME KIND OF FLANGE EFFECT)
    d:--5-7--3-5-0-(lr)--------5-7--3-5---------
    A:----------------------------------3b-(lr)- x 8
    D:------------------------------------------
    
    CHORUS: (DISTORTION ON)
    d:--0-0-0-0-0-0-0-0-3-3-3-3-3-3-3-3-5-5-5-5-5-5-5-5-0-0-5--0-(lr)   
    A:--0-0-0-0-0-0-0-0-3-3-3-3-3-3-3-3-5-5-5-5-5-5-5-5-0-0-5--0-(lr) X 1  
    D:--0-0-0-0-0-0-0-0-3-3-3-3-3-3-3-3-5-5-5-5-5-5-5-5-0-0-5--0-(lr)
    
    
    MAIN RIFF/VERSE: 
    d:--5-7--3-5-0-(lr)--------5-7--3-5---------
    A:----------------------------------3b-(lr)- x 4 WITH DISTORTION x 8 WITH FLANGE
    D:------------------------------------------
    
    
    CHORUS: (DISTORTION ON)
    d:--0-0-0-0-0-0-0-0-3-3-3-3-3-3-3-3-5-5-5-5-5-5-5-5-0-0-5--0     |-0-(lr)
    A:--0-0-0-0-0-0-0-0-3-3-3-3-3-3-3-3-5-5-5-5-5-5-5-5-0-0-5--0 X 2 |---
    D:--0-0-0-0-0-0-0-0-3-3-3-3-3-3-3-3-5-5-5-5-5-5-5-5-0-0-5--0     |---
    
    
    MAIN RIFF: 
    d:--5-7--3-5-0-(lr)--------5-7--3-5---------
    A:----------------------------------3b-(lr)- x 4
    D:------------------------------------------
    
    HEAVY PART 2:
    d:--5/7--0-h5-p0-h3-0-3-3-0-----------
    A:--5/7--0-h5-p0-h3-0-3-3-0--3-h5-p0-- X 4
    D:--5/7--0-h5-p0-h3-0-3-3-0-----------
    
    
    BUILD UP TO LAST CHORUS:
    D:--PM-0-0-0-0-0-0-0-0-3-3-3-3-3-3-3-3-5-5-5-5-5-5-5-5-0-0-0-0-5-5-0 X 1
    
    d:-----------------------------------------------------0-0-5--0 
    A:-----------------------------------------------------0-0-5--0 x1  
    D:--PM-0-0-0-0-0-0-0-0-3-3-3-3-3-3-3-3-5-5-5-5-5-5-5-5-0-0-5--0 
    
    CHORUS: (DISTORTION ON)
    d:--0-0-0-0-0-0-0-0-3-3-3-3-3-3-3-3-5-5-5-5-5-5-5-5-0-0-5-0-(lr)   
    A:--0-0-0-0-0-0-0-0-3-3-3-3-3-3-3-3-5-5-5-5-5-5-5-5-0-0-5-0-(lr) X 2  
    D:--0-0-0-0-0-0-0-0-3-3-3-3-3-3-3-3-5-5-5-5-5-5-5-5-0-0-5-0-(lr)
     

    Тональность:

    Нет текста!



    Назад
    Рекомендуем посмотреть другие песни исполнителя «Grinspoon»:

    • Комментарии Facebook ()
    • Комментарии ВКонтакте



    Добавить в Избранное Браузера
    Сохранить здесь Очистить


    x

    0


    +
    -

    +
    -

    -

    Авторизация





    Зарегистрироваться

    M

    Дата и время

    • 17:31:29
       

    Социальные ссылки


    Наши приложения

    • Muzbank App Play Market
    • Muzbank Amazon App