MUZBANK



A Most Complete Bank Of Music Information

МУЗЫКАЛЬНО-ИНФОРМАЦИОННЫЙ БАНК

Поиск по сайту







    GGrinspoon • Chemical Heart (аккорды и текст - chords & lyrics)


    183

    Print

    Видео «Chemical Heart (Grinspoon)»

    Видео клипы к песне подбираются автоматически сайтом youtube. Возможны некоторые несоответствия клипов песне.

    ↑ Спрятать рекламу ↑



    Download



     
    
    
    ======================================================================
                       CHEMICAL HEART - Grinspoon
    ======================================================================
    
    slide : /
    
    intro riff 
    e--------------------------------------------------------|
    B----15------15-------15-------13------12-------12-------|
    G-------14------14------14/12-----12------12------12/14--|
    D---------0--------0----------------0--------0-----------|
    A--------------------------------------------------------|
    E--0-----------------------------------------------------|
    
    chorus riff
    e------------------------------------------|
    B--5/7-7--7-7-7--7-7/10--10-10-10-10/12-7--|
    G--5/7-7--7-7-7--7-7/9---9--9--9---9/11-7--|
    D------------------------------------------|
    A------------------------------------------|
    E------------------------------------------|
     

    Тональность:

    Нет текста!



    Назад
    Рекомендуем посмотреть другие песни исполнителя «Grinspoon»:

    • Комментарии Facebook ()
    • Комментарии ВКонтакте



    Добавить в Избранное Браузера
    Сохранить здесь Очистить


    x

    0


    +
    -

    +
    -

    -

    Авторизация





    Зарегистрироваться

    M

    Дата и время

    • 07:02:39
       

    Социальные ссылки


    Наши приложения

    • Muzbank App Play Market
    • Muzbank Amazon App