MUZBANK



A Most Complete Bank Of Music Information

МУЗЫКАЛЬНО-ИНФОРМАЦИОННЫЙ БАНК

Поиск по сайту







    GGrinspoon • Dead Cat 3 Times (аккорды и текст - chords & lyrics)


    222

    Print

    Видео «Dead Cat 3 Times (Grinspoon)»

    Видео клипы к песне подбираются автоматически сайтом youtube. Возможны некоторые несоответствия клипов песне.

    ↑ Спрятать рекламу ↑



    Download



     
    
    
    grinspoon - DCX3
    
    tabbed by acid -= acid@uq.net.au =-
    
    intro.chorus:
    G [-----------|----------|----------|----------]
    D [-----------|----------|----------|----------]
    A [-----------|----------|----------|----------]
    D [--3--3--3--|-5--5--5--|-3--3--3--|-5--5--5--]
    
    verse riff:
    G [----------------------------------------]
    D [----------------------------------------]
    A [----------------------------------------]
    D [--0-3-0-0-5-0-0-6-0-0-7-0-/12-12-12-12--]
    
    break:
    G [-------------------------------------]
    D [-------------------------------------]
    A [-------------------------------------]
    D [--0-3-0-0-5-0-0-6-0-0-5-0-0-3--3--3--]
    
    guitar solo:
    G [----------------|----------------|----------------|----------------]
    D [----------------|----------------|----------------|----------------]
    A [----------------|----------------|----------------|----------------]
    D [-0--0-0-0-0-0-0-|-1--1-1-1-1-1-1-|-2--2-2-2-2-2-2-|-3-3-3-3-3-3-3--]
    
    G [---------------------------------|---------------------------------]
    D [---------------------------------|---------------------------------]
    A [---------------------------------|---------------------------------]
    D [--4--4-4--5--5-5--6--6-6--7--7-7-|-8-/9-/10-/11-/12-/13-/14/15-15--]
     

    Тональность:

    Нет текста!



    Назад
    Рекомендуем посмотреть другие песни исполнителя «Grinspoon»:

    • Комментарии Facebook ()
    • Комментарии ВКонтакте



    Добавить в Избранное Браузера
    Сохранить здесь Очистить


    x

    0


    +
    -

    +
    -

    -

    Авторизация





    Зарегистрироваться

    M

    Дата и время

    • 13:31:56
       

    Социальные ссылки


    Наши приложения

    • Muzbank App Play Market
    • Muzbank Amazon App