MUZBANK



A Most Complete Bank Of Music Information

МУЗЫКАЛЬНО-ИНФОРМАЦИОННЫЙ БАНК

Поиск по сайту







    GGrinspoon • Lost Control (аккорды и текст - chords & lyrics)


    241

    Print

    Видео «Lost Control (Grinspoon)»

    Видео клипы к песне подбираются автоматически сайтом youtube. Возможны некоторые несоответствия клипов песне.

    ↑ Спрятать рекламу ↑



    Download



     
    
    
    GRINSPOON LOST CONTROL
    TABBED by Thomas Fleay
    
    Tried my best I know the chorus is pretty wrong coz I suck at tabbing 
    stuff but should give you a starting point 
    EMAIL at blah_bla_blo@hotmail.com for corrections and stuff like that
    
    BRIDGE
    |---------------------------|
    |---------------------------|
    |-77777777------------------|
    |-77777777--4p3-4p3-0h3-5---|
    |-99999999--4p3-4p3-0h3-5-3-|
    |-00000000----------------3-|
      ........
    
    VERSES
    |-----|-----|-----|-----|---------------|
    |-----|-----|-----|-----|---------------|
    |-----|-----|-----|-----|---------------|
    |-0-6-|-0-6-|-0-6-|-0-6-|-6-6-6-5-5-7-7-|
    |-0-6-|-0-6-|-0-6-|-0-6-|-6-6-6-5-5-7-7-|
    |-0-4-|-0-4-|-0-4-|-0-4-|-4-4-4-3-3-5-5-|
    
    CHORUS
     BAR1            BAR2            BAR3
    |---------------|---------------|-----------------------------
    |---------------|---------------|-----------------------------
    |---x-10--------|---x-10--------|-999999999999911111111111111-
    |-6-x-10-9-99-9-|-6-x-10-9-98-8-|-999999999999911111111111111-
    |-6-x--8-9-99-9-|-6-x--8-9-98-8-|-7777777777777-9-9-9-9-9-9-9-
    |-4-0--0-7-77-7-|-4-0--0-7-76-6-|-----------------------------
    
    ---------------|
    ---------------|
    13131313131313-|
    13131313131313-|
    11111111111111-|
    ---------------|
    
    INTERLUDE
    |----------------------------------|
    |----------------------------------|
    |----------------------------------|
    |----------------------------------|
    |--------------789-----------------|
    |-0000000000000---0000000000000788-|
    
    |----------------------------------|
    |----------------------------------|
    |----------------------------------|
    |----------------------------------|
    |-xxxxxxxxxxxxx789xxxxxxxxxxxxx78--|
    |-0000000000000---0000000000000788-|
      .............   .............
    
    =======================================================================
    !!!!!!!!!!!!!!!!!!!!!!!!!!CORRECTED VERSION!!!!!!!!!!!!!!!!!!!!!!!!!!!!
    =======================================================================
    
    
    GRINSPOON LOST CONTROL
    TABBED by Thomas Fleay
    
    I tried correcting this  

    Тональность:

    Нет текста!



    Назад
    Рекомендуем посмотреть другие песни исполнителя «Grinspoon»:

    • Комментарии Facebook ()
    • Комментарии ВКонтакте



    Добавить в Избранное Браузера
    Сохранить здесь Очистить


    x

    0


    +
    -

    +
    -

    -

    Авторизация





    Зарегистрироваться

    M

    Дата и время

    • 17:36:11
       

    Социальные ссылки


    Наши приложения

    • Muzbank App Play Market
    • Muzbank Amazon App