MUZBANK



A Most Complete Bank Of Music Information

МУЗЫКАЛЬНО-ИНФОРМАЦИОННЫЙ БАНК








    GGrinspoon • More Than You Are (аккорды и текст - chords & lyrics)


    185

    Print

    Видео «More Than You Are (Grinspoon)»

    Видео клипы к песне подбираются автоматически сайтом youtube. Возможны некоторые несоответствия клипов песне.

    ↑ Спрятать рекламу ↑






     
    
    
    Song Title: More Than You Are
    Band: Grinspoon
    Tabber: Todd Ford (ToddFord@HotMail.com)
    Tuning: Dropped D Tuning
    
    
    
    Intro
    |-------------------------------------------------------------------|
    |-------------------------------------------------------------------|
    |-------------------------------------------------------------------|
    |-4-4-444--2-2-22-22--0-0-0-0-0-2--4-4-444--2-2-22-22--0-0-0-4(1)--|
    
    
    Verse
    |---------------------------------------------------|
    |---------------------------------------------------|
    |--------------------5------------------------------|
    |-444---222---000--00-002--444---222---000--0000-02-|
    
    |--------------------------------------------------|
    |--------------------------------------------------|
    |-------------------5555---------------------------|
    |-444---222---000-------02--444---22222-0000-122-|
    
    
    Chorus
    |---------------------------------|
    |---------------------------------|
    |---------------------------------|
    |-4-4-444--2-2-2-2--0--0--0--0--0-|
    
    
    Interlude
    |-------------------------|
    |-------------------------|
    |-------------------------|
    |-4-4-/12--7-7-/12--2-2-0-|
     

    Тональность:

    Нашли ошибку?



    Назад
    Рекомендуем посмотреть другие песни исполнителя «Grinspoon»:

    • Комменты Fb ()
    • Комменты ВК



    Добавить в Избранное Браузера
    Сохранить здесь Очистить


    x

    0


    +
    -

    +
    -

    -

    Авторизация





    Зарегистрироваться

    M

    Дата и время

    • 14:09:55
       

    Социальные ссылки


    Наши приложения

    • Muzbank App Play Market
    • Muzbank Amazon App