MUZBANK



A Most Complete Bank Of Music Information

МУЗЫКАЛЬНО-ИНФОРМАЦИОННЫЙ БАНК

Поиск по сайту







    GGrinspoon • Sickfest (аккорды и текст - chords & lyrics)


    233

    Print

    Видео «Sickfest (Grinspoon)»

    Видео клипы к песне подбираются автоматически сайтом youtube. Возможны некоторые несоответствия клипов песне.

    ↑ Спрятать рекламу ↑



    Download


     
    
    
    grinspoon - SICKFEST
    
    tabbed by acid -= acid@uq.net.au =-
    
    intro:
    G [---------------------]
    D [---------------------]
    A [--5p3p0-5p3p0--1-----]
    D [------------------3--]
    
    verse:
    G [------------------|------------------------]
    D [------------------|------------------------]
    A [------------------|-5--3-------------------]
    D [--0-0--0--0--3----|-------3---0-3-5-6-5-3--]
    
    G [------------------|------------------------]
    D [------------------|----3------0-3-5-6-5-3--]  play these riffs twice
    A [------------------|-5-----3----------------]
    D [--0-0--0--0--3----|------------------------]
    
    chorus:
    G [----------------------|----------------------------]
    D [----------------------|----------------------------]
    A [----------------------|-5p3p0---------------3-4-5--]
    D [--0-0-0-0-3-0-0-0-0-3-|-------0-3--0-3--0-3--------]
    
    break u down bit:
    G [-----------------------------------------] 
    D [-----------------------------------------]
    A [-----------------------------------------]
    D [--0-0-0-0----0-0-0-0-----0-0-0-0---0--1--]
    
    guitar bit:
    G [--------------------------------------------] 
    D [--------------------------------------------]
    A [--------------------------------------------]
    D [--0-0-0-12---0-0-0-12---0-0-0-12---0--1--]
     

    Тональность:

    Нет текста!



    Назад
    Рекомендуем посмотреть другие песни исполнителя «Grinspoon»:

    • Комментарии Facebook ()
    • Комментарии ВКонтакте



    Добавить в Избранное Браузера
    Сохранить здесь Очистить


    x

    0


    +
    -

    +
    -

    -

    Авторизация





    Зарегистрироваться

    M

    Дата и время

    • 09:11:23
       

    Социальные ссылки


    Наши приложения

    • Muzbank App Play Market
    • Muzbank Amazon App