MUZBANK



A Most Complete Bank Of Music Information

МУЗЫКАЛЬНО-ИНФОРМАЦИОННЫЙ БАНК

Поиск по сайту







    GGrinspoon • Snap Your Fingers Snap Your Neck (аккорды и текст - chords & lyrics)


    223

    Print

    Видео «Snap Your Fingers Snap Your Neck (Grinspoon)»

    Видео клипы к песне подбираются автоматически сайтом youtube. Возможны некоторые несоответствия клипов песне.

    ↑ Спрятать рекламу ↑



    Download



     
    
    
    Drop D Tuning Down A Whole Step (low to high: C B C F A D)
    
    Intro
    
    |-----------------------------------------------------|
    |-----------------------------------------------------|
    |---------------6---------------6---------------------|
    |--1--1-0-------0-------0-------0---------------------|
    |--1--1-0---------------0---------------12--gradual--|
    |--1--1-0---------------0---------------12---slide---|
            let ring........................
    
             (play 7 times)
    |--------|------------|-------------------------------|
    |--------|------------|-------------------------------|
    |--------|------------|-------------------------------|
    |--11-0--|--1--1-000--|--1--1-0----------------------|
    |--11-0--|--1--1-000--|--1--1-0----------------------|
    |--11-0--|--1--1-000--|--1--1-0-----------------p.s--|
                             let ring.............
    
    Verse
    
    blah blah...
    
    Bridge
    
             (play 8 times)
    |-------|------------------|
    |-------|------------------|
    |-------|------------------|
    |-------|------------------|
    |-------|--00--0--0---0-5--|
    |--12--|--00-30-50-6-0----|
       slight p.m.........
    
    
    Chorus
    
    |--------------------|
    |--------------------|
    |--5-55--888--7-777--|
    |--------------------|
    |--3-33--666--5-555--|
    |--------------------|
     

    Тональность:

    Нет текста!



    Назад
    Рекомендуем посмотреть другие песни исполнителя «Grinspoon»:

    • Комментарии Facebook ()
    • Комментарии ВКонтакте



    Добавить в Избранное Браузера
    Сохранить здесь Очистить


    x

    0


    +
    -

    +
    -

    -

    Авторизация





    Зарегистрироваться

    M

    Дата и время

    • 23:35:54
       

    Социальные ссылки


    Наши приложения

    • Muzbank App Play Market
    • Muzbank Amazon App