MUZBANK



A Most Complete Bank Of Music Information

МУЗЫКАЛЬНО-ИНФОРМАЦИОННЫЙ БАНК

Поиск по сайту







    GGuano Apes • Dodel Up (аккорды и текст - chords & lyrics)


    399

    Print

    Видео «Dodel Up (Guano Apes)»

    Видео клипы к песне подбираются автоматически сайтом youtube. Возможны некоторые несоответствия клипов песне.

    ↑ Спрятать рекламу ↑



    Download



    intro
    
    e|------------------------|
    b|------------------------|
    g|----------12--11-9--11--|
    d|--12--11--12--11-9--11--|
    a|--12--11--10--9--7--9---|
    e|--10--9-----------------|
    
    e|---------------------|
    b|---------------------|
    g|--11--11---11--(12)--|
    d|--11--11---11--(12)--|
    a|--9---9----9---(10)--|
    e|---------------------|
    
    играется со специальной примочкой (прозрачные спецэффекты)
    
    
    
    Припев:
    
    e|----------------|
    b|----------------|
    g|----------------| это играется два раза
    d|--4-4---4-4--5--|
    a|--4-4---4-4--5--|
    e|--2-2---2-2--3--|
    
    
    e|---------------------------|
    b|---------------------------|
    g|----------------4-3--------|
    d|--4-4---4-4--5--4-3-5-4-2--|
    a|--4-4---4-4--5--2-1-5-4-2--|
    e|--2-2---2-2--3------3-2-0--|
    
    
    Do you really feel the same
    With your sigaretes lying beetween your lips
    Why do you always need some stars
    They drestic or I do find themselfes
    
    Why do we never ever hah?
    My life is steping far ahead
    
    Love Might be so cool
    Ye,that might be cool
    I might be awfull in your eyes
    Love Might be so cool
    Ye,that might be cool
    I might be awfull in your arms
    
    Dodel up,dodel up,dodel up-hue
    I?m lachter but I?m bore
    
    I really need all this:
    See your shining eyes down in a crowd
    And I really made for miss
    I think it feels good to be around
    
    Why do we never ever hah?
    My life is steping far ahead
    
    Love Might be so cool
    Ye,that might be cool
    I might be awfull in your eyes
    Love Might be so cool
    Ye,that might be cool
    I might be awfull in your arms
    
    Dodel up,dodel up,dodel up-hue
    I?m lachter but I?m bore
    
    Am I made for yoga?
    Never end it,never end it
    
    Dodel up,dodel up,dodel up-hue
    Never end it,never end it
    
    

    Тональность:

    Нет текста!



    Назад
    Рекомендуем посмотреть другие песни исполнителя «Guano Apes»:

    • Комментарии Facebook ()
    • Комментарии ВКонтакте



    Добавить в Избранное Браузера
    Сохранить здесь Очистить


    x

    0


    +
    -

    +
    -

    -

    Авторизация





    Зарегистрироваться

    M

    Дата и время

    • 19:10:55
       

    Социальные ссылки


    Наши приложения

    • Muzbank App Play Market
    • Muzbank Amazon App