MUZBANK



A Most Complete Bank Of Music Information

МУЗЫКАЛЬНО-ИНФОРМАЦИОННЫЙ БАНК

Поиск по сайту







    GGuns N Roses • Coma (аккорды и текст - chords & lyrics)


    245

    Print

    Видео «Coma (Guns N Roses)»

    Видео клипы к песне подбираются автоматически сайтом youtube. Возможны некоторые несоответствия клипов песне.

    ↑ Спрятать рекламу ↑






     intro: w/ heartbeat
      Riff A
    E|-------------------------------------------------------------|
    B|-------------------------------------------------------------|
    G|-------------------------------------------------------------|
    D|-6---5---4-4-----5---6---5-----------5---6---5-----------5-5-|
    A|-4-0-3-0-6-6-0-0-3-0-4-0-3-0-4-7-4-0-3-0-4-0-3-0-4-7-4-0-3-3-|
    E|-------------------------------------------------------------|
    
    E|---------------|
    B|---------------|
    G|---------------|
    D|-4---6---5---6-|
    A|-2-0-4-0-3-0-4-|
    E|---------------|
    
    E|---------------------|
    B|--------13-13--12-12-|
    G|--------14-14--12-12-|
    D|-14-14--14-14--12-12-|
    A|-12-12--12-12--10-10-|
    E|---------------------|
      hey, you caught me in a coma an i don`t think i wanna
    
    E|---------------------|
    B|-11-11--10-10---9--9-|
    G|-12-12--10-10--10-10-|
    D|-12-12--10-10--10-10-|
    A|-10-10---8--8---8--8-|
    E|---------------------|
      ever come back to this world again kinda like it in a coma
    
    E|-----|
    B|-----|
    G|-x-x-|
    D|-x-x-|
    A|-x-x-|
    E|-----|
       cause no one`s ever gonna
    
    Ab5         Eb5             G5          D5
    oh make me come back to this  world again now i feel as if i`m
    
    floating away i can`t feel
    
    E|------------|
    B|-5-5---4-4--|
    G|-5-5---5-5--|
    D|-5-5---5-5--|
    A|-3-3---3-3--|
    E|------------|
       all the pressure and i like it this way but my body`s callin`
    
                  Eb5          Bb5              D5        A5
    my body`s callin` won`t ya come back to this world again
                                                      suspended deep
    
    E|-3-3-|
    B|-3-3-|
    G|-4-4-|
    D|-5-5-|
    A|-5-5-|
    E|-3-3-|
    in a sea of black i`ve got the light at the end i`ve got the
                                                               bones
    
            B5
    E|-3-3-|
    B|-3-3-|
    G|-3-3-|
    D|-5-5-|
    A|-5-5-|
    E|-3-3-|
    on the mast well i`ve gone sailing i`ve
    gone sailing i could leave
    
       F#5  B5                      C5 C#5
    so easily while friends are callin`
      D5                    A5
    back to me i said they`re leaving
    
          E5            G5                D5      C#5 C5
    it all up to me when all i needed was clarity an
    
     B5 C5  B5  C5  B5  C5  B5  C5   B5 C5 B5 C5
    someone to tell me what the fuck is goin` on
    
     w/ heartbeat
    E|-------------------------------------------------------------|
    B|-------------------------------------------------------------|
    G|-------------------------------------------------------------|
    D|6---5---4-4----5---6---5-----------5---6---5----------5-5-4--|
    A|4-0-3-0-6-6-0-03-0-4-0-3-0-4-7-4-0-3-0-4-0-3-0-4-7-4-03-3-2-0|
    E|-------------------------------------------------------------|
    
    E|-------------------------|
    B|-------------------------|
    G|-------------------------|
    D|-6---5-----------5-5-4-3-|
    A|-4-0-3-0-4-7-4-0-3-3-2-1-|
    E|-------------------------|
       God  -   damn  -   it!
    
            w/EKG
    E|-----|-------|---|---|----|-----------|
    B|-----|-------|-7-|-8-|-11-|-(11)~~~~~-|
    G|-----|-------|-7-|-7-|-10-|-(10)~~~~~-|
    D|-2-2-|-------|---|---|----|-----------|
    A|-0-0-|-0~~~~-|---|---|----|-----------|
    E|-----|-------|---|---|----|-----------|
    
    F5
    slipin` farther an farther an farther away it`s
     C5
    a miracle how long
    
                       B5  A#5  B5   A#5   B5   A#5
    we can stay in a world our minds cre - at - ed
      B5 A#5 B5   A#5    B5  A#5 B5
    in  a world that`s full of shit
    
      Riff B
    E|----------------------|
    B|----------------------|
    G|-4---3----4-4-----3---|
    D|-2---1----2-2-----1---|
    A|---0---0------3-0---0-|
    E|----------------------|
     Help me                Help me      Help me
    [medical dialogue & sound effects]
    w/Riff B(3x) & RiffA
    
    A. D5.      A.  A5..   B5.
    please understand me i`m climbing throught the wreckage of all
    
                                F#5
    my twisted dreams but this cheap investigation
    just can`t stifle
    
            F#.   C#.  F#. G5..
    all my screams an i`m waiting at the
      D.                     E5..
    crossroads wainting for you
    
                  E5..                          A5..
    waiting for you______________(where are you?)
    
    half time feel
    E|---0--------3-|----|-------0-|--------|-5------|-5---|
    B|--------0-3---|----|-0h2-----|--------|---5----|---5-|
    G|------0-------|-r4-|---------|------2-|-----r4-|-----|
    D|----4---------|----|---------|-2h4----|--------|-----|
    A|-0------------|----|---------|--------|--------|-----|
    E|--------------|----|---------|--------|--------|-----|
    
    E|--------------3-----------------------------2--------5-------|
    B|----5--4--2----------3-------------------------------------2-|
    G|-----------------0-------2--------------0-------2------------|
    D|------------------------------------4------------------------|
    A|-0------------------------------0----------------------------|
    E|-------------------------------------------------------------|
    no one`s gonna bother me anymore no one`s gonna mess with
                                                    my head no more
    
    E|---------------3-------------------|
    B|-----5--4--2----------3-------5/75-|
    G|------------------0-------2--------|
    D|-----------------------------------|
    A|-0---------------------------------|
    E|-----------------------------------|
      i can`t understand what all the fightin`s for
    
    E|----0--------2--------5------------------|
    B|-----------------------------2-----------|
    G|---------0-------2-------2------------r2-|
    D|-----------------------------------------|
    A|-0---------------------------------------|
    E|-----------------------------------------|
      but it`s so nice here down off the shore
    
    E|---------------3-----------------2--------5------0---------0-|
    B|-----5--4--2----------3----------------------------0-----2---|
    G|-------------------0-----------------0-------2-------2-------|
    D|-----------------4-------------------------------------------|
    A|-0----------------------------0------------------------------|
    E|-------------------------------------------------------------|
    wish you could see this `cause there`s nothing to see it`s
                                peacefull here and it`s fine with me
    
    E|-------------3------------0h2---0-----2---5------------------|
    B|----5--4--2--------3---------------------------3-2tr(3)~~~~~-|
    G|----------------0------------------0----2---2----------------|
    D|---------------------4---------------------------------------|
    A|-0----------------------------0------------------------------|
    E|-------------------------------------------------------------|
      not like the world where i used to live i never really wanted
                                                             to live
    
    E|-------------3---------------------------3--5-------------|
    B|----5--4--2----------3--3-------------3-----------------2-|
    G|------------------0--------0-------0--------------------2-|
    D|---------------4---------------4----------------4---2---2-|
    A|-0--------------------------------------------------------|
    E|----------------------------------------------------------|
    
    E|---------------------------------------------------------|
    B|---------------------------------------------------------|
    G|---------------------------------------------------------|
    D|-6---5---4-4-----5---6---5-----------5---6---5-----------|
    A|-4-0-3-0-6-6-0-0-3-0-4-0-3-0-4-7-4-0-3-0-4-0-3-0-4-7-4-0-|
    E|---------------------------------------------------------|
    
    E|---------------------------------|
    B|---------------------------------|
    G|---------------------------------|
    D|-5-5-4---6---5-------------------|
    A|-3-3-2-0-4-0-3-0-4-3-2-1-0-------|
    E|---------------------------0-1-2-|
    
      guitar solo:
    E|----------3---------3---------3---------3---------3-------3-|
    B|-6p3----3---6-----3---6-----3---6-----3---6-----3---6--6^---|
    G|-----5^--------5^--------5^--------5^--------5^-------------|
    D|------------------------------------------------------------|
    A|------------------------------------------------------------|
    E|------------------------------------------------------------|
    
    E|--------|
    B|-6p3-6^-|
    G|--------|
    D|--------|
    A|--------|
    E|--------|
    
    E|3---3-6-3---3-6p3---3-6p3---3-6p3---3-6p3---3-6p3---3-6p3----|
    B|--6-------6-------6-------6-------6-------6-------6-------6p3|
    G|-------------------------------------------------------------|
    D|-------------------------------------------------------------|
    A|-------------------------------------------------------------|
    E|-------------------------------------------------------------|
    
    E|7p4-----8p5-----9p6-----10p7---------------------------------|
    B|----7p4-----8p5-----9p6------12^-r12p10----12^-r12-p10----12~|
    G|----------------------------------------11-------------11----|
    D|-------------------------------------------------------------|
    A|-------------------------------------------------------------|
    E|-------------------------------------------------------------|
    
    E|---------------------------10--------------------------------|
    B|-/15-(15)-13p12-13-1211------13^---------r-----10-(10)---r13-|
    G|---------------------------------------------10--------------|
    D|-------------------------------------------------------------|
    A|-------------------------------------------------------------|
    E|-------------------------------------------------------------|
    
    E|------------------------------------13-----------------------|
    B|-11--(11)h13p1110---11-10--9---13^----13-(13)~~~~~~~------13-|
    G|-----------------------------------------------------12h14---|
    D|-------------------------------------------------------------|
    A|-------------------------------------------------------------|
    E|-------------------------------------------------------------|
    
    E|----------|
    B|-(13)~~~~-|
    G|----------|
    D|----------|
    A|----------|
    E|----------|
    
    E|------------------15-----------------------------------------|
    B|----13-15^--(15)-----r15-(15)~~~~~-------15-(15)~~~~~~----15-|
    G|-12--------------------------------14h16---------------14----|
    D|-------------------------------------------------------------|
    A|-------------------------------------------------------------|
    E|-------------------------------------------------------------|
    
    E|----------17----|
    B|-17^-(17)---r17-|
    G|----------------|
    D|----------------|
    A|----------------|
    E|----------------|
    
    E|-------------------------------------------------------------|
    B|-15^-15^-(15)-(15)~~-(15)-r(15)p13----15^-(15)-(15)-(15)-r15-|
    G|-----------------------------------14------------------------|
    D|-------------------------------------------------------------|
    A|-------------------------------------------------------------|
    E|-------------------------------------------------------------|
    
    E|-------------------------------------------------------------|
    B|13h15--------------------------------------------------------|
    G|------14^-(14)-12-14----12-(12)~~~-------------------14----12|
    D|---------------------14------------------12-14-12-14----14---|
    A|-----------------------------------13-14---------------------|
    E|-------------------------------------------------------------|
    
    E|-------------------------------------------------------13----|
    B|-----12-15-----12-----12---------------------15-----13----13-|
    G|-14^-------14^----14^----14^r-12----14----12-14^-14----------|
    D|---------------------------------14----14--------------------|
    A|-------------------------------------------------------------|
    E|-------------------------------------------------------------|
    
    E|-13----------|
    B|----16^-(16)-|
    G|-------------|
    D|-------------|
    A|-------------|
    E|-------------|
    
    E|-15-14-13----------------------------13-14-15--------18^r^~~-|
    B|----------16^(gradual bend)-(16)--17----------r15-13---------|
    G|-------------------------------------------------------------|
    D|-------------------------------------------------------------|
    A|-------------------------------------------------------------|
    E|-------------------------------------------------------------|
    
    E|-17^--(17)-r^----17^r^-----17^//////--17^--(17)-|
    B|------------------------------------------------|
    G|------------------------------------------------|
    D|------------------------------------------------|
    A|------------------------------------------------|
    E|------------------------------------------------|
    
      w/ bitching
    E|----------------------|----|
    B|----------------------|----|
    G|----------------------|-%--|
    D|-4---3----4-4-----3---|-3x-|
    A|-2---1----2-2-----1---|----|
    E|---0---0------3-0---0-|----|
    
    E|-------------------------------------------------------------|
    B|-------------------------------------------------------------|
    G|-------------------------------------------------------------|
    D|-6---5---4-4-----5---6---5-----------5---6---5-----------5-5-|
    A|-4-0-3-0-6-6-0-0-3-0-4-0-3-0-4-7-4-0-3-0-4-0-3-0-4-7-4-0-3-3-|
    E|-------------------------------------------------------------|
    
    E|---------------|
    B|---------------|
    G|---------------|
    D|-4---6---5---6-|
    A|-2-0-4-0-3-0-4-|
    E|---------------|
    
    E|------------------------------------|
    B|------------------------------------|
    G|------------------------------------|
    D|-6-----5-----------------5--5--4--3-|
    A|-4--0--3--0--4--7--4--0--3--3--2--1-|
    E|------------------------------------|
    

    Тональность:

    Нет текста!



    Назад
    Рекомендуем посмотреть другие песни исполнителя «Guns N Roses»:

    • Комментарии Facebook ()
    • Комментарии ВКонтакте



    Добавить в Избранное Браузера
    Сохранить здесь Очистить


    x

    0


    +
    -

    +
    -

    -

    Авторизация





    Зарегистрироваться

    M

    Дата и время

    • 07:04:16
       

    Социальные ссылки


    Наши приложения

    • Muzbank App Play Market
    • Muzbank Amazon App