MUZBANK



A Most Complete Bank Of Music Information

МУЗЫКАЛЬНО-ИНФОРМАЦИОННЫЙ БАНК

Поиск по сайту







    GGuns N Roses • Down On The Farm (аккорды и текст - chords & lyrics)


    267

    Print

    Видео «Down On The Farm (Guns N Roses)»

    Видео клипы к песне подбираются автоматически сайтом youtube. Возможны некоторые несоответствия клипов песне.

    ↑ Спрятать рекламу ↑



    Download



    Intro :-
    (1st Guitar repeats four times)
    (2nd Guitar does short vertical pickslides on D string approx.
     1" from pickup)
    E|-----------------------|---------------|
    B|-----------------------|---------------|
    G|---------2--------4----|-2--------4----|
    D|--(2)(2)-2--4--2--2--2-|-2--4--2--2--2-|
    A|--(2)(2)----2--2-----2-|----2--2-----2-|
    E|-----------------------|---------------|
    
    (2nd Guitar repeat twice)
    (Enter at start of third repetition of 1st Guitar)
    E|-----------------------|---------|
    B|-----------------------|---------|
    G|------------2----------|-2-------|
    D|--(2)(2)(2)-2--4--2----|-2--4--2-|
    A|--(2)(2)(2)----2--2----|----2--2-|
    E|-----------------------|---------|
    
    (1st Guitar pickslides)
    (Both play) Riff before verse (Repeat twice) :-
    E|------------------------------------------|
    B|------------------------------------------|
    G|------------------------------------------|
    D|--2----------------5--3----------5--7-----|
    A|--2------7--5------3--1----------3--5-----|
    E|---------5--3-----------------------------|
    
    (Both play) Riff during verse (Repeat four times):-
    E|------------------------------------------|
    B|------------------------------------------|
    G|------------------------------------------|
    D|--2----------------5--7----------5--------|
    A|--2------7--5------3--5----------3--7-----|
    E|---------5--3-----------------------5-----|
    
    (Both play) Riff before verse (Repeat twice):-
    E|------------------------------------------|
    B|------------------------------------------|
    G|------------------------------------------|
    D|--2----------------5--3----------5--7-----|
    A|--2------7--5------3--1----------3--5-----|
    E|---------5--3-----------------------------|
    
    (Both play) Riff during verse (Repeat four times):-
    E|------------------------------------------|
    B|------------------------------------------|
    G|------------------------------------------|
    D|--2----------------5--7----------5--------|
    A|--2------7--5------3--5----------3--7-----|
    E|---------5--3-----------------------5-----|
    
    (1st Guitar) Riff during solo (Repeat four times):-
    E|------------------------------------------|
    B|------------------------------------------|
    G|------------------------------------------|
    D|--4--4----4--4----4--3------------7-------|
    A|--2--2----2--2----2--1--7--5------5-------|
    E|------------------------5--3--------------|
    
    (Both play) Riff before verse (Repeat twice) :-
    E|------------------------------------------|
    B|------------------------------------------|
    G|------------------------------------------|
    D|--2----------------5--3----------5--7-----|
    A|--2------7--5------3--1----------3--5-----|
    E|---------5--3-----------------------------|
    
    (Both play) Riff during verse (Repeat nine times):-
    E|------------------------------------------|
    B|------------------------------------------|
    G|------------------------------------------|
    D|--2----------------5--7----------5--------|
    A|--2------7--5------3--5----------3--7-----|
    E|---------5--3-----------------------5-----|
    
    (Both play) Final Riff :-
    E|------------------------------------------|
    B|------------------------------------------|
    G|------------------------------------------|
    D|--2----------------5--7-7-7-7-7-etc..--2--|
    A|--2------7--5------3--5-5-5-5-5-etc..--2--|
    E|---------5--3-----------------------------|
    
    (2nd Guitar) Solo in the middle of the song (b slight bend)
    (Repeat twice) :-
    E|------------------------------------------|
    B|------15-------15-------15----------------|
    G|--16b------16b------16b-----14--14h16-14--|
    D|------------------------------------------|
    A|------------------------------------------|
    E|------------------------------------------|
    
    E|------------------------------------------|
    B|------------------------------------------|
    G|------10-------10-------10----------------|
    D|--11b------11b------11b-----9---9h11---7--|
    A|------------------------------------------|
    E|------------------------------------------|
    
    All I need is some inspiration,
    Before I do somebody some harm.
    I feel just like a vegetable,
    Down here on the farm.
    No body comes to see me,
    No body here to turn me on.
    I ain`t even got a lover,
    Down here on the Farm.
    
    They told me to get healthy,
    They told me to get some sun.
    But boredom eats me like cancer,
    Down here on the farm.
    Drinking lemonade shandy,
    Ain`t nobody here to do me harm.
    But I`m like a fish out of water.
    Down here on the farm.
    
    I write a thousand letters,
    `til my fingers all go numb.
    But I, never see no postman,
    Down here on the farm.
    I called my baby on the telephone,
    I say `come down and have some fun,
    But she knows what the score is,
    Down here on the farm.
    I can`t fall in love with the wheat field!
    I can`t fall in love with the barn!
    When everything smells like horses%!#
    Down here on the farm.
    Blue skies and swimming pools,
    Add so much charm,
    But I`d rather be back in Soho,
    Than down here on the farm.
    
    On the f%&*!? farm!
    
    Are you born in a f%&*!? barn or what?
    Baaaa!
    
    Hold still...
    

    Тональность:

    Нет текста!



    Назад
    Рекомендуем посмотреть другие песни исполнителя «Guns N Roses»:

    • Комментарии Facebook ()
    • Комментарии ВКонтакте



    Добавить в Избранное Браузера
    Сохранить здесь Очистить


    x

    0


    +
    -

    +
    -

    -

    Авторизация





    Зарегистрироваться

    M

    Дата и время

    • 13:34:25
       

    Социальные ссылки


    Наши приложения

    • Muzbank App Play Market
    • Muzbank Amazon App