MUZBANK



A Most Complete Bank Of Music Information

МУЗЫКАЛЬНО-ИНФОРМАЦИОННЫЙ БАНК

Поиск по сайту







    GGuns N Roses • Jive (аккорды и текст - chords & lyrics)


    216

    Print

    Видео «Jive (Guns N Roses)»

    Видео клипы к песне подбираются автоматически сайтом youtube. Возможны некоторые несоответствия клипов песне.

    ↑ Спрятать рекламу ↑



    Download


    E|-----------------------------------------------------------|
    B|----------------------------------------------H-P-----H----|
    G|---------[[1]]----[[1]]---H-P----4~~~~~-/-7-5-7-5--4-5~~~~-|
    D|2-/-3~~~-3---3~~~-3---3-2-3-2------------------------------|
    A|------------------------------2----------------------------|
    E|-----------------------------------------------------------|
    
    E|---------------H-P----H-----------------------H--P---------H-|
    B|---8-6-5-6/8-6-8-6-5-6----/-12--/-15~~~-13--15-13----12-13---|
    G|-5----------------------4------------------------------------|
    D|-------------------------------------------------------------|
    A|-------------------------------------------------------------|
    E|-------------------------------------------------------------|
                     H[[1]]            H  P
    E|---15--13-13-12-13----13-12~~~-12-13-1210--H--|
    B|13-----------------------------------------12-|
    G|----------------------------------------------|
    D|----------------------------------------------|
    A|----------------------------------------------|
    E|----------------------------------------------|
                                                            [[1/2]]
    E|---H-P------------------------------------[[1]]------19-19~~-|
    B|8-12-8--H--P-----H-P---------------------18----18-17---------|
    G|-------11-10--9-10-9--1210--/14~~~--/17----------------------|
    D|-------------------------------------------------------------|
    A|-------------------------------------------------------------|
    E|-------------------------------------------------------------|
      [[1]]
    E|-20--20~~------------20-19-20-----------[[1/2]]-----19-18-19-|
    B|-----------18-17-18-----------18-17-18-17-----17~~-----------|
    G|-------------------------------------------------------------|
    D|-------------------------------------------------------------|
    A|-------------------------------------------------------------|
    E|-------------------------------------------------------------|
                     rake
    E|---19----19--------x-----------------------------------------|
    B|17----17----17------x--------[[1]]---------------------------|
    G|---------------------x-9-12-10----10(10)(10)~~~--12-10-12-10-|
    D|-------------------------------------------------------------|
    A|-------------------------------------------------------------|
    E|-------------------------------------------------------------|
    
    E|-------------------------------------------------------------|
    B|-------------------------------------------------------------|
    G|x-x-10 9-(9)-(9)~-4-(4)-(4)-(4)~~~---------------------------|
    D|-----------------------------------6-(6)-(6)~-2-(2)-(2)~-2/3-|
    A|-------------------------------------------------------------|
    E|-------------------------------------------------------------|
    
    E|--------------------------------------------7~~~~-|
    B|----------------3-/-6~~~--5-6-5-6-5-6-------------|
    G|-------2--3--5------------------------6--4--------|
    D|-3--5---------------------------------------------|
    A|--------------------------------------------------|
    E|--------------------------------------------------|
    

    Тональность:

    Нет текста!



    Назад
    Рекомендуем посмотреть другие песни исполнителя «Guns N Roses»:

    • Комментарии Facebook ()
    • Комментарии ВКонтакте



    Добавить в Избранное Браузера
    Сохранить здесь Очистить


    x

    0


    +
    -

    +
    -

    -

    Авторизация





    Зарегистрироваться

    M

    Дата и время

    • 11:38:48
       

    Социальные ссылки


    Наши приложения

    • Muzbank App Play Market
    • Muzbank Amazon App