MUZBANK



A Most Complete Bank Of Music Information

МУЗЫКАЛЬНО-ИНФОРМАЦИОННЫЙ БАНК

Поиск по сайту







    GGuns N Roses • Mama Kin (аккорды и текст - chords & lyrics)


    229

    Print

    Видео «Mama Kin (Guns N Roses)»

    Видео клипы к песне подбираются автоматически сайтом youtube. Возможны некоторые несоответствия клипов песне.

    ↑ Спрятать рекламу ↑



    Download



    Intro
    E|---------|-----------------------------------------------|
    B|---------|-----------------------------------------------|
    G|-x--x--x-|-9--9--9--9--9---------------------------------|
    D|-x--x--x-|-9--9--9--9--9--9--9--9--9--9----7--7--7--7--7-|
    A|-x--x--x-|-7--7--7--7--7--9--9--9--9--9----7--7--7--7--7-|
    E|---------|----------------7--7--7--7--7----5--5--5--5--5-|
    
    For the verses you play: (thanks Monica)
    E|------------------------------|
    B|------------------------------|
    G|------------------------------|
    D|-2-2--4--2-2---5-4--2-2-4-2-2-|
    A|-2-2--4--2-2---5-4--2-2-4-2-2-|
    E|------------------------------|
    
    Chorus      Keepin` touch with mama kin...
    E|---------|---------|
    B|---------|---------|
    G|---------|-------9-|
    D|-2--2--2-|-9--9--9-|
    A|-2--2--2-|-9--9--7-|
    E|-0--0--0-|-7--7----|
    
    Chords:
    First verse:
    
    E5            B5.
    it ain`t easy livin` like a gypsy
      A5                       E5.
    tell ya honey how it feels
    E5                  B5
    i`ve been dreaming floatin` down stream
         A5                            E5
    and losin` touch with all that`s real
                      B5
    whole lotta lover keepin` under cover
     A5                      E
    never knowin` where you been
             E5                  B5
    oo yeah  you`ve been fadin` always out paradin`
     A5
    keep in touch with mama
      E  F#5 G5 G#5   A5
    kin            you always got your tail
             E5             A5
    on the wag    spittin` fire from your
                   E5          F#5 G5 G#5
    mouth just like a drag - on         you
      A5                    E5
    act like a perpetual drag
       F#5
    you better check it out cause someday soon
    you`ll have to climb back on the
    B5
    wag - on.
    
     Guitar solo:
    E|-17--------17--------17--------17-17--------17--------17-|
    B|----20p17-----20p17-----20p17--------20p17-----20p17-----|
    G|---------------------------------------------------------|
    D|---------------------------------------------------------|
    A|---------------------------------------------------------|
    E|---------------------------------------------------------|
    
    E|--------17--------17-------|
    B|-20p17-----20p17-----20p17-|
    G|---------------------------|
    D|---------------------------|
    A|---------------------------|
    E|---------------------------|
    
    E|-------------------------------------------------------------|
    B|-17h20p17----17h20p17----17h20p17----17----------------------|
    G|----------20----------20----------20----20p19-17----19p17h18-|
    D|-------------------------------------------------19----------|
    A|-------------------------------------------------------------|
    E|-------------------------------------------------------------|
    
    E|------------------17----20~~~|
    B|---------------17----17-19~~~|
    G|-19-17h18-17h18--------------|
    D|-----------------------------|
    A|-----------------------------|
    E|-----------------------------|
    

    Тональность:

    Нет текста!



    Назад
    Рекомендуем посмотреть другие песни исполнителя «Guns N Roses»:

    • Комментарии Facebook ()
    • Комментарии ВКонтакте



    Добавить в Избранное Браузера
    Сохранить здесь Очистить


    x

    0


    +
    -

    +
    -

    -

    Авторизация





    Зарегистрироваться

    M

    Дата и время

    • 22:45:50
       

    Социальные ссылки


    Наши приложения

    • Muzbank App Play Market
    • Muzbank Amazon App