MUZBANK



A Most Complete Bank Of Music Information

МУЗЫКАЛЬНО-ИНФОРМАЦИОННЫЙ БАНК

Поиск по сайту







    GGuns N Roses • Move To The City (аккорды и текст - chords & lyrics)


    230

    Print

    Видео «Move To The City (Guns N Roses)»

    Видео клипы к песне подбираются автоматически сайтом youtube. Возможны некоторые несоответствия клипов песне.

    ↑ Спрятать рекламу ↑



    Download


     Intro: Gtr.1
    E|-----------------------12-(12)----------------------12-(12)--|
    B|-x---x--x-x--x---x-x-x-12-(12)---14qb-12-14qb-12-14-12-(12)--|
    G|-x---x--x-x--x---x-x-x-12-(12)---14qb-12-14qb-12-14----------|
    D|-------------------------------------------------------------|
    A|-------------------------------------------------------------|
    E|-------------------------------------------------------------|
    
    E|------------------12-(12)------------------------------12(12)|
    B|14qbp1214qbp12-14-12-(12)14-12-14qb-12-14-12-12-12-x-x-12(12)|
    G|14qbp1214qbp12-14--------14-12-14qb-12-14-12-12-12-x-x-12(12)|
    D|-------------------------------------------------------------|
    A|-------------------------------------------------------------|
    E|-------------------------------------------------------------|
    
    E|---------------------12-(12)----------------------12---(12)--|
    B|--14qb-12-14qb-12-14-12-(12)--14qbp12-14qbp12-14--12---(12)--|
    G|--14qb-12-14qb-12-14----------14qbp12-14qbp12-14-------------|
    D|-------------------------------------------------------------|
    A|-------------------------------------------------------------|
    E|-------------------------------------------------------------|
    
    E|------------------------------------------12-(12)-12---------|
    B|-14qb-12-14qb-12-14p12-14hb-(14)-rbp12-14-12-(12)-12-14-x-12-|
    G|-14qb-12-14qb-12-14p12-14fb-(14)-rbp12-14-12-(12)----14-x-12-|
    D|-------------------------------------------------------------|
    A|-------------------------------------------------------------|
    E|-------------------------------------------------------------|
    
    E|----12-(12)-|
    B|-14-12-(12)-|
    G|-14-12-(12)-|
    D|------------|
    A|------------|
    E|------------|
    
    E|----------------------12-(12)-----------------------------|
    B|-14qbp12-14qb-12-14qb-12-(12)-14-12-14qb-12-14-12--12--12-|
    G|-14qbp12-14qb-12-14qb---------14-12-14qb-12-14-12--12--12-|
    D|----------------------------------------------------------|
    A|----------------------------------------------------------|
    E|----------------------------------------------------------|
    
    E|-----12-(12)-|
    B|-x-x-12-(12)-|
    G|-x-x-12-(12)-|
    D|-------------|
    A|-------------|
    E|-------------|
    
    E|--------------------12-(12)------------------12-14-12--12-|
    B|-14qb-12-14qb-12-14-12-(12)-14-12-14qb-12-14-12----12--12-|
    G|-14qb-12-14qb-12-14---------14-12-14qb-12-14--------------|
    D|----------------------------------------------------------|
    A|----------------------------------------------------------|
    E|----------------------------------------------------------|
    
    E|-(12)----------------|
    B|-(12)---0-3p2p0------|
    G|-----------------2p0-|
    D|---------------------|
    A|---------------------|
    E|---------------------|
    
    E|-------------------------------------------------------------|
    B|-------------------9-9-----9-9----10-9-9-9-------------------|
    G|-------------------9-9-x-x-9-9-x-x-9-9-9-9--7-(7)-7-7-6--6-6-|
    D|-0-2p0-------------9-9-x-x-9-9-x-x-9-9-9-9--7-(7)-7-7-6--6-6-|
    A|-------0-----------7-7-x-x-7-7-x-x-7-7-7-7--5-(5)-5-5-4--4-4-|
    E|---------3qb-0-(0)-------------------------------------------|
    
    E|--------------------------|
    B|--------------------------|
    G|-4-(4)-4-4---7--7-8-9-(9)-|
    D|-4-(4)-4-4---7--7-8-9-(9)-|
    A|-2-(2)-2-2---5--5-6-7-(7)-|
    E|--------------------------|
    
    E|-------------------------------------------------------------|
    B|----9-----9-9-(9)---9-9-9-9----------------------------------|
    G|----9-----9-9-(9)---9-9-9-9-7-(7)-7-7-6-6-6-4-(4)-4-4-7-7-8-9|
    D|x-x-9-x-x-9-9-(9)-x-9-9-9-9-7-(7)-7-7-6-6-6-4-(4)-4-4-7-7-8-9|
    A|x-x-7-x-x-7-7-(7)-x-7-7-7-7-5-(5)-5-5-4-4-4-2-(2)-2-2-5-5-6-7|
    E|-------------------------------------------------------------|
                                                            trem.bar
     Guitar solo:                                              2 1/2
    E|---------------------------2-------2-----------------------|
    B|-------------------------2---2-5fb---5-2-4hb---------------|
    G|-4fb(slow bend)--4fb-(4)-----------------4hb--4fb-----(4)--|
    D|-----------------------------------------------------------|
    A|-----------------------------------------------------------|
    E|-----------------------------------------------------------|
    
    E|--/---------------------------|
    B|-/----/-----------------------|
    G|------4---4hbrp2-4fb-2-(2)~~~-|
    D|------------------------------|
    A|------------------------------|
    E|------------------------------|
    
    E|------------------------------------------------------------|
    B|------------------------------------------------------------|
    G|-2-4p2------------------------------------------------------|
    D|-------2-4p2---4---2-----2-----4---------2/4--(4)~~-4----14-|
    A|-------------4---3---3h4---3p2---42------------------/16----|
    E|------------------------------------5-2---------------------|
    
    E|---------------|
    B|---------------|
    G|----------16---|
    D|-16p14-16---16-|
    A|---------------|
    E|---------------|
    
    E|------------14-----------14----------------------|
    B|---------14----14--17fb-----17-14----------17fbr-|
    G|-14-16fb--------------------------16fbr-14-------|
    D|-------------------------------------------------|
    A|-------------------------------------------------|
    E|-------------------------------------------------|
    

    Тональность:

    Нет текста!



    Назад
    Рекомендуем посмотреть другие песни исполнителя «Guns N Roses»:

    • Комментарии Facebook ()
    • Комментарии ВКонтакте



    Добавить в Избранное Браузера
    Сохранить здесь Очистить


    x

    0


    +
    -

    +
    -

    -

    Авторизация





    Зарегистрироваться

    M

    Дата и время

    • 11:22:31
       

    Социальные ссылки


    Наши приложения

    • Muzbank App Play Market
    • Muzbank Amazon App