MUZBANK



A Most Complete Bank Of Music Information

МУЗЫКАЛЬНО-ИНФОРМАЦИОННЫЙ БАНК

Поиск по сайту







    GGuns N Roses • You Could Be Mine (аккорды и текст - chords & lyrics)


    421

    Print

    Видео «You Could Be Mine (Guns N Roses)»

    Видео клипы к песне подбираются автоматически сайтом youtube. Возможны некоторые несоответствия клипов песне.

    ↑ Спрятать рекламу ↑



    Download



    E|-----------------------------------------|
    B|-----------------------------------------|
    G|-----------------------------------------|
    D|-----------------------------------------|
    A|-----------------------------------------|
    E|-12-12-12-12-12-12-12-12-9-9-9-9-9-9-7-7-|
    
    E|-------------------------------|
    B|-------------------------------|
    G|-------------------------------|
    D|-------------------------------|
    A|-------------------------------|
    E|7-7-7-7-7-7-7-7-5-5-4-4-3-3-3-3|
    
    E|-14-- Then do some funky feedback with ----|
    B|-14--                                  ----|
    G|-14--                                  --2-|
    D|-----                                  --2-|
    A|-----                                  ----|
    E|-----                                  ----|
    
       ј B     p                             1/2    p
    E|-----------------------------------------------------------3-|
    B|-4-----4---2------------2--------2-----2-----0-------------3-|
    G|-4-----4---2------------2--------2-----2-----0---------------|
    D|-------------------4----2-----------------------------2------|
    A|-------------------------------------------------------------|
    E|-------------------------------------------------------------|
      |------Lick 1--------------|    |------Lick 2----------------|
    
    from now on play lick 1 with 1/2 bend.
    
    Note: when playing the bends make sure that you bend both notes.
    
    repeat lick 1 twice    repeat lick 2 twice
    repeat lick 1 twice    repeat lick 2 once
    
    E|-----3--|
    B|-----3--|
    G|--2-----|
    D|--------|   (then repeat this 5 times)
    A|--------|
    E|--------|
    
    Now we have about 4 measures of powerchords ect.
    Listen to the song to see how the timing goes (That goes for
    this whole work)
    
    E|----------------|
    B|----------------|
    G|-------7------9-|
    D|-9-----9------9-|
    A|-7-----7------7-|
    E|----------------|
    
    Then the main riff that is used through out the chorus and
    verses is this:
    E|-------------------------------------------------------------|
    B|-------------------------------------------------------------|
    G|-2-4-2--4--2--------------------------2--4--2--4--2----------|
    D|-2-4-2--4--2--4--2-----4--2--4--2--4--2--4--2--2--2--4--2----|
    A|--------------4--2--4--4--2--4--2--4-----------------4--2--4-|
    E|--------------------2--------------------------------------2-|
    
    A couple people wanted the solo so here it is:
    
    Solo:
    You could be mineanother reason to cry
       1/2    1/2 hold---|
    E|-------------------------------------------------------|
    B|--------9-----9-----9--------9--(9)p7---9--7-----------|
    G|--------9-----9-----9--------9--(9)p7---9--7-----------|
    D|-(9)-9-----9---------------------------------9--7--9~~-|
    A|-------------------------------------------------------|
    E|-------------------------------------------------------|
    
                          1/2
    E|-------------------------------------------------------------|
    B|-7--9--9--9--7--9-----9-----------7--------------------------|
    G|-7--9--9--9--7--9--7--9-7h9--9----7--9p7s6--7-6-7-6h7p6----6-|
    D|-------------------7-----------7-------------------------9---|
    A|-------------------------------------------------------------|
    E|-------------------------------------------------------------|
    
                           1/2 1/2~~      1/2  1/2 2(1/2)     F~~
    E|-------------------------------------------------------------|
    B|-------------------------------------------------------------|
    G|---6------------------------------------------------------10-|
    D|-9---9-9-7----9---7-----------------7------------------9-----|
    A|-----------9----9---9-8-8-7-(7)p5---7-5----------------------|
    E|----------------------------------7-----7-7--10--7-(7)s------|
    
                 1/2
    E|-10--7------10-x------10-9h10p9p7----9----7h9p7---10------10-|
    B|-10~~--10p7----x-10p7-------------10---10------10----8s12----|
    G|-------------------------------------------------------------|
    D|-------------------------------------------------------------|
    A|-------------------------------------------------------------|
    E|-------------------------------------------------------------|
    
             F(ull)
    E|--------12---10------14---------17~-14-17--------------14----|
    B|-12--10---------12-10---17-14-------------14-17-17~~~~~~--17-|
    G|------------------------------16-----------------------------|
    D|-------------------------------------------------------------|
    A|-------------------------------------------------------------|
    E|-------------------------------------------------------------|
    
                                                     F    F   F
    E|----17-14-------------14-------17-----17-14-17----17--17--17-|
    B|-14-------17p14-17~~-----17p14----14-----------14------------|
    G|-------------------------------------------------------------|
    D|-------------------------------------------------------------|
    A|-------------------------------------------------------------|
    E|-------------------------------------------------------------|
    
       ЅB              While you`re breakin down my back an` I been
    E|-------------------------------------------------------------|
    B|-17-16-------------------------------------------------------|
    G|-------16-14-----------------------14s16-------16~~~~~~~~~~~-|
    D|-------------16p15p14--122--14--12---------------------------|
    A|-------------------------------------------------------------|
    E|-------------------------------------------------------------|
    
     matter how we maek it cause it always
    |--------------------------------------------|
    |--7-----------------------------------------|
    |--7-----------------------------------------|
    |--7-----------------------------7(harmonic)-|
    |--5-----------------------------------------|
    |--------------------------------------------|
    
      I     said    you                              could       be
    E|-------------------------------------------------------------|
    B|---------------------------10--------------------10----------|
    G|-9s11---11s14---11-----11-----11-------------11------11------|
    D|---------------------------------9(full)p7-------------------|
    A|-7s9----9s12-------------------------------9------------9--9-|
    E|-------------------------------------------------------------|
    
     you                         should  be   you
    E|-------------------------------------------------------------|
    B|-----------10-------------------------------10---------------|
    G|-------11------11--11-------------------11------11-----11----|
    D|------------------------9------------------------------------|
    A|-9--9----------------------9------------------------9------9-|
    E|-------------------------------------------------------------|
    
    could              be                   mine
    E|------------------------------------------------|
    B|-------14--16--14--16--14-----------------------|
    G|--11---14--16--14--16--14-----------------------|
    D|-----------------------------16----14--16~~~~~~-|
    A|------------------------------------------------|
    E|------------------------------------------------|
    

    Тональность:

    Нет текста!



    Назад
    Рекомендуем посмотреть другие песни исполнителя «Guns N Roses»:

    • Комментарии Facebook ()
    • Комментарии ВКонтакте



    Добавить в Избранное Браузера
    Сохранить здесь Очистить


    x

    0


    +
    -

    +
    -

    -

    Авторизация





    Зарегистрироваться

    M

    Дата и время

    • 11:42:49
       

    Социальные ссылки


    Наши приложения

    • Muzbank App Play Market
    • Muzbank Amazon App