MUZBANK



A Most Complete Bank Of Music Information

МУЗЫКАЛЬНО-ИНФОРМАЦИОННЫЙ БАНК

Поиск по сайту







    GGwar • The Performer (аккорды и текст - chords & lyrics)


    222

    Print

    Видео «The Performer (Gwar)»

    Видео клипы к песне подбираются автоматически сайтом youtube. Возможны некоторые несоответствия клипов песне.

    ↑ Спрятать рекламу ↑



    Download


     
    
    
    Artist:Gwar
    Title:The performer
    Album:we kill everything
    
    
    normal tuning
    
    
    Riff 1
    
    e|----------------------------------|
    b|----------------------------------|
    g|---2-2----------------------------|
    d|-------3-3-2h3-2-2h3-2h3-2h3-2h3--|
    a|-0--------------------------------|
    E|----------------------------------|
    
    
    Riff 2
    
    e|------------------------------------------------------------------|
    b|------------------------------------------------------------------|
    g|-9-9-9-9--9--7--6--------------------9-9-9-9--9--7--6--7-6-7-9-7--|
    d|-9-9-9-9--9--7--6--7-7-7-7--7--5--4--9-9-9-9--9--7--6--7-6-7-9-7--|
    a|-7-7-7-7--7--5--4--7-7-7-7--7--5--4--7-7-7-7--7--5--4--5-4-5-7-5--|
    E|-------------------5-5-5-5--5--3--2-------------------------------|
    
    break
    
    e|----------------|
    b|----------------|
    g|----------------|
    d|-7--77--77--77--|
    a|-7--77--77--77--|
    E|-5--55--55--55--|
    
    
    Riff 3
    
    e|--------------------------------------------------------------------|
    b|--------------------------------------------------------------------|
    g|--------------------------------------------------------------------|
    d|-9/11-11-11-11-11--9/11-11-11-11-11--------------9/11--11-10--------|
    a|-9/11-11-11-11-11--9/11-11-11-11-11--------9/11--------------11-10--|
    E|-7/9--9--9--9--9---7/9--9--9--9--9---9/11---------------------------|
    
    
    well thats it
    
    thanx
    jeremy
    ====
     

    Тональность:

    Нет текста!



    Назад
    Рекомендуем посмотреть другие песни исполнителя «Gwar»:

    • Комментарии Facebook ()
    • Комментарии ВКонтакте



    Добавить в Избранное Браузера
    Сохранить здесь Очистить


    x

    0


    +
    -

    +
    -

    -

    Авторизация





    Зарегистрироваться

    M

    Дата и время

    • 21:31:11
       

    Социальные ссылки


    Наши приложения

    • Muzbank App Play Market
    • Muzbank Amazon App